Oops, an error
Loading. Please wait.

Spanish Blue Bass Tab

7 views 1 this week
no commentswrite comment
1 2 3 4 5
3 more votes to show rating
add to favorites
launch autoscroll
font size
0
reset
guitar tuner
Autoscroll
slow
fast
+/-
esc
set tempo
stop
Help us to improve Ultimate-Guitar.com Take our survey!
×
Author
Bass Start - 00:11


[Intro]

G|----------------|----------------|-------------------|
D|--4-------------|----------------|-------------------|
A|----------------|--2-------------|------5-5--4--2----|
E|----------------|----------------|--5-------------5--|


[Verse 1]

G|----------------|----------------|----------------|
D|----------------|----------------|----------------|
A|----------------|--7-------------|----------------|
E|--7-------------|----------------|--5-------------|


G|----------------|----------------|----------------|-------------------|
D|--4-------------|----------------|----------------|-------------------|
A|----------------|--5-------------|----------------|------5-5--4--2----|
E|----------------|----------------|--0-------------|--5-------------5--|


G|--------------|--------------|--------------|---------------|
D|--------------|--------------|--------------|--4---4-4------|
A|--------------|--7---7-7--7--|--------------|-------------4-|
E|--7---7-7--7--|--------------|--5---5-5--5--|-----------5---|


G|--------------|-------------|----------------|
D|--------------|-------------|----------------|
A|-5---5-5----5-|-7---7-7--7--|--------------4-|
E|----------5---|-------------|--5---5-5--7----|


[Chorus]

G|-------------|-------------|----------------------------|
D|-------------|-5---5-5---5-|-4-4--4------4-4--4---4---4-|
A|-5---5-5---5-|-------------|--------4-----------4---4---|
E|-------------|-------------|----------------------------|


G|--------------|---------------|----------------|----------------|
D|----------2-4-|-5---5-5-5-5-4-|-2-2--2-2-2-2-2-|-2--------------|
A|-5---5-5------|---------------|----------------|-------------5--|
E|--------------|---------------|----------------|----------------|


[Verse 2]

G|--------------|--------------|--------------|---------------|
D|--------------|--------------|--------------|--4---4-4------|
A|--------------|--7---7-7--7--|--------------|-------------4-|
E|--7---7-7--7--|--------------|--5---5-5--5--|-----------5---|


G|--------------|-------------|-------------------|
D|--------------|-------------|-------------------|
A|-5---5-5----5-|-7---7-7--7--|------5-5--4--2----|
E|----------5---|-------------|--5-------------5--|


G|-------------------|---------------|------------------|------------------|
D|-------------------|---------------|------------------|------------------|
A|--------------5)-5-|-7-------------|------------------|-4---4-4--(4-2)-0-|
E|--7---7-7--(7------|-----0-0--2--4-|-5---5-5--(2-5)-2-|------------------|


G|--------------|-------------|----------------|
D|--------------|-------------|----------------|
A|-5---5-5----5-|-7---7-7--7--|--------------4-|
E|----------5---|-------------|--5---5-5--7----|


[Chorus]

G|-------------|-------------|----------------------------|
D|-------------|-5---5-5---5-|-4-4--4------4-4--4---4---4-|
A|-5---5-5---5-|-------------|--------4-----------4---4---|
E|-------------|-------------|----------------------------|


G|--------------|---------------|---------------|------------|
D|----------2-4-|-5---5-5-5-5-4-|-----------0-2-|-3---3-3-3--|
A|-5---5-5------|---------------|-3---3-3-3-----|------------|
E|--------------|---------------|---------------|------------|


G|---------------------|----------------|
D|--2-2-2-2-2-2---2-2--|----------------|
A|--------------2------|----------------|
E|---------------------|----------------|


[Outro]

G|----------------|----------------|----------------|----------------|
D|----------------|----------------|----------------|----------------|
A|--2-------------|----------------|----------------|----------------|
E|----------------|--0-------------|--5-------------|----------------|



**************************

| ( ) : fast

**************************
Suggest correction
Give kudos to tab author, rate the tab!
1 2 3 4 5
comments
print report bad tab
guest
You may want to rate the tab now too:
select rating
Wanna post a correction for this tab? Suggest correction