Oops, an error
Loading. Please wait.

Stand Up Bass Tab

7 views 1 this week
no commentswrite comment
1 2 3 4 5
3 more votes to show rating
add to favorites
launch autoscroll
font size
0
reset
guitar tuner
Autoscroll
slow
fast
+/-
esc
set tempo
stop
Help us to improve Ultimate-Guitar.com Take our survey!
×
Author
Difficulty
novice
[Intro]
G|------------|
D|-3-3-3-3--5-|
A|------------|
E|------------|

[Verse 1]
G|-------------|------------|-----------|5------2-2-4-4| (x2)
D|-----2-5--2--|------2-----|3---3-5---5|---5-5--------|
A|-3----------5|----3----5-0|-----------|--------------|
E|-------------|5-----------|-----------|--------------|

[Chorus]
G|--5--5--------|--2-2-2-2----|------------|------------|
D|--------------|-----------5-|-3---2-0----|-5---3-2--0-|
A|--------------|-------------|----------3-|------------|
E|--------------|-------------|------------|------------|

G|-------------|------------|-----------|-----2-|------------|5------------| 
D|-----2-5--2--|------2-----|3---3-5---5|-------|-3---3-5---5|--3-3-3-3--5-|
A|-3----------5|----3----5-0|-----------|3-3----|------------|-------------|
E|-------------|5-----------|-----------|-------|------------|-------------|

[Verse 2]
G|-------------|------------|-----------|5------2-2-4-4| (x2)
D|-----2-5--2--|------2-----|3---3-5---5|---5-5--------|
A|-3----------5|----3----5-0|-----------|--------------|
E|-------------|5-----------|-----------|--------------|

[Chorus]
G|--5--5--------|--2-2-2-2----|------------|------------|
D|--------------|-----------5-|-3---2-0----|-5---3-2--0-|
A|--------------|-------------|----------3-|------------|
E|--------------|-------------|------------|------------|

G|-------------|------------|-----------|-----2-|------------|5------------| 
D|-----2-5--2--|------2-----|3---3-5---5|-------|-3---3-5---5|--3-3-3-3--5-|
A|-3----------5|----3----5-0|-----------|3-3----|------------|-------------|
E|-------------|5-----------|-----------|-------|------------|-------------|

[Instrumental]
G|-------------|------------|-----------|5------2-2-4-4| (x2)
D|-----2-5--2--|------2-----|3---3-5---5|---5-5--------|
A|-3----------5|----3----5-0|-----------|--------------|
E|-------------|5-----------|-----------|--------------|

[Outro]
G|--5--5--------|--2-2-2-2----|------------|------------|
D|--------------|-----------5-|-3---2-0----|-5---3-2--0-|
A|--------------|-------------|----------3-|------------|
E|--------------|-------------|------------|------------|

G|-------------|------------|-----------|-----2-|------------|5-------------5-| 
D|-----2-5--2--|------2-----|3---3-5---5|-------|-3---3-5---5|--3-3-3-3--5----|
A|-3----------5|----3----5-0|-----------|3-3----|------------|----------------|
E|-------------|5-----------|-----------|-------|------------|----------------|



*********************************

in regular sequence!

*********************************
Suggest correction
Give kudos to tab author, rate the tab!
1 2 3 4 5
comments
print report bad tab
guest
You may want to rate the tab now too:
select rating
Wanna post a correction for this tab? Suggest correction