Oops, an error
Loading. Please wait.

Wide Open Road Bass Tab

22 views 9 this week
no commentswrite comment
1 2 3 4 5
3 more votes to show rating
add to favorites
launch autoscroll
font size
0
reset
guitar tuner
Autoscroll
slow
fast
+/-
esc
set tempo
stop
Help us to improve Ultimate-Guitar.com Take our survey!
×
Author
Difficulty
novice
Bass Start - 00:16


[Intro]
G|--------------------|------------------------|------------------------|------------------5--7\|
D|--------------------|------------------------|------------------------|7---7-7---7--7--7------|
A|--------------------|------------------------|----------/7--7----7--7-|-----------------------|
E|3---3-3---3--3--3-3-|3---3-3---3--3--3-3--3-2|0---0-0----------0------|-----------------------|

G|--------------------|-----------------------|------------------------|------------------5--7\|
D|--------------------|-----------------------|------------------------|7---7-7---7--7--7------|
A|--------------------|-----------------------|----------/7--7----7--7-|-----------------------|
E|3---3-3---3--3--3-3-|3---3-3---3--3--3-3--3-|0---0-0----------0------|-----------------------|

[Verse 1]
G|--------------------|-----------------------|------------------------|------------------5--7\| (x3)
D|--------------------|-----------------------|------------------------|7---7-7---7--7--7------|
A|--------------------|-----------------------|----------/7--7----7--7-|-----------------------|
E|3---3-3---3--3--3-3-|3---3-3---3--3--3-3--3-|0---0-0----------0------|-----------------------|

[Chorus]
G|--------------------|-----------------------|------------------------|------------------5--7\|
D|--------------------|-----------------------|------------------------|7---7-7---7--7--7------|
A|--------------------|-----------------------|----------/7--7----7--7-|-----------------------|
E|3---3-3---3--3--3-3-|3---3-3---3--3--3-3--3-|0---0-0----------0------|-----------------------|

[Verse 2]
G|--------------------|-----------------------|------------------------|------------------5--7\|
D|--------------------|-----------------------|------------------------|7---7-7---7--7--7------|
A|--------------------|-----------------------|----------/7--7----7--7-|-----------------------|
E|3---3-3---3--3--3-3-|3---3-3---3--3--3-3--3-|0---0-0----------0------|-----------------------|

[Chorus]
G|--------------------|-----------------------|------------------------|------------------5--7\|
D|--------------------|-----------------------|------------------------|7---7-7---7--7--7------|
A|--------------------|-----------------------|----------/7--7----7--7-|-----------------------|
E|3---3-3---3--3--3-3-|3---3-3---3--3--3-3--3-|0---0-0----------0------|-----------------------|

[Bridge]
G|--------------------|--------------------|--------------------|--------------------------|
D|--------------------|--------------------|--------------------|--------------------------|
A|--------------------|--------------------|--------------------|--------------------------|
E|3---3-3---3--3--3-3-|3---3-3---3--3--3-3-|3---3-3---3--3--3-3-|5---5-5---5--5--5-5-/8-\5-|

[Chorus]
G|--------------------|-----------------------|------------------------|------------------5--7\|
D|--------------------|-----------------------|------------------------|7---7-7---7--7--7------|
A|--------------------|-----------------------|----------/7--7----7--7-|-----------------------|
E|3---3-3---3--3--3-3-|3---3-3---3--3--3-3--3-|0---0-0----------0------|-----------------------|

[Verse 3]
G|--------------------|-----------------------|------------------------|------------------5--7\|
D|--------------------|-----------------------|------------------------|7---7-7---7--7--7------|
A|--------------------|-----------------------|----------/7--7----7--7-|-----------------------|
E|3---3-3---3--3--3-3-|3---3-3---3--3--3-3--3-|0---0-0----------0------|-----------------------|

[Bridge]
G|--------------------|--------------------|--------------------|--------------------------|
D|--------------------|--------------------|--------------------|--------------------------|
A|--------------------|--------------------|--------------------|--------------------------|
E|3---3-3---3--3--3-3-|3---3-3---3--3--3-3-|3---3-3---3--3--3-3-|5---5-5---5--5--5-5-/8-\5-|

[Chorus]
G|--------------------|-----------------------|------------------------|------------------5--7\| (x3)
D|--------------------|-----------------------|------------------------|7---7-7---7--7--7------|
A|--------------------|-----------------------|----------/7--7----7--7-|-----------------------|
E|3---3-3---3--3--3-3-|3---3-3---3--3--3-3--3-|0---0-0----------0------|-----------------------|

[Outro]
G|--------------------|-----------------------|------------------------|------------------5--7-|
D|--------------------|-----------------------|------------------------|7---7-7---7--7--7------|
A|--------------------|-----------------------|----------/7--7----7--7-|-----------------------|
E|3---3-3---3--3--3-3-|3---3-3---3--3--3-3--3-|0---0-0----------0------|-----------------------|

G|--------------------|------------------------|-------------------------|------------------5--7-|
D|5---5-5-\-----------|------------------------|-------------------------|7---7-7---7--7--7------|
A|--------------------|------------------------|-----------/7--7----7--7-|-----------------------|
E|----------3--3--3-3-|3---3-3---3--3--3-3--3-2|0---0-0-----------0------|-----------------------|

G|--------------------|-----------------------|-------------------------|---------------------7-|
D|5---5-5-\-----------|-----------------------|-------------------------|7---7-7---7--7--7-5----|
A|--------------------|-----------------------|-----------/7--7----7--7-|-----------------------|
E|----------3--3--3-3-|3---3-3---3--3--3-3--3-|0---0-0-----------0------|-----------------------|
                                                                                          
G|--------------------|------------------------|-------------------------|------------------5--7-|
D|5---5-5-\-----------|------------------------|-------------------------|7---7-7---7--7--7------|
A|--------------------|------------------------|-----------/7--7----7--7-|-----------------------|
E|----------3--3--3-3-|3---3-3---3--3--3-3--3-2|0---0-0-----------0------|-----------------------|
              
G|--------------------| (fade out) 
D|5---5-5-\-----------|
A|--------------------|
E|----------3--3--3-3-|



*******************************

| / slide up
| \ slide down

*******************************
Suggest correction
Give kudos to tab author, rate the tab!
1 2 3 4 5
comments
print report bad tab
guest
You may want to rate the tab now too:
select rating
Wanna post a correction for this tab? Suggest correction