Oops, an error
Loading. Please wait.

Any Way That You Want Me bass

266 views 1 this week
no commentswrite comment
1 2 3 4 5
3 more votes to show rating
add to favorites
×
Save as Personal and add changes to this tab that will be seen only by you. Learn more ›
×
You can save this tab as Personal to edit and correct it or add notes. All changes will be seen only by you. Learn more »
launch autoscroll
font size
0
reset
guitar tuner
edit
Autoscroll
slow
fast
+/-
esc
set tempo
stop
Author
Any Way That You Want Me
The Troggs
Written by Chip Taylor; released as a single with "66-5-4-3-2-1" as the 
B-side.

Intro:
G|------- ------- ------- -------|------- ------- ------- -------|
D|-------------------------------|7---------------7-----------7--|
A|-------------------------------|-------------------------------|
E|5-----------5---5--------------|-------------------------------|



G|------- ------- ------- -------|------- ------- ------- -------|
D|-------------------------------|7-----------7------------------|
A|-------------------------------|-------------------------------|
E|5-----------5---5--------------|-------------------------------|
                                                            If it's

Verse:
G|------- ------- ------- -------|------- ------- ------- -------|
D|-------------------------------|7-----------7---7--------------|
A|-------------------------------|-------------------------------|
E|5-----------5---5--------------|-------------------------------|
  love   that you want,                           ba- by,     you've


G|------- ------- ------- -------|------- ------- ------- -------|
D|-------------------------------|7-----------7---7--------------|
A|-------------------------------|-------------------------------|
E|5-----------5---5--------------|-------------------------------|
  got it,                                                 From the


G|------- ------- ------- -------|------- ------- ------- -------|
D|-------------------------------|7-----------7---7--------------|
A|-------------------------------|-------------------------------|
E|5-----------5---5--------------|-------------------------------|
  depth of   my   soul,                           ba- by,     you've


G|------- ------- ------- -------|------- ------- ------- -------|
D|-------------------------------|7---------------7--------------|
A|-------------------------------|-------------------------------|
E|5-----------5---5--------------|-------------------------------|
  got it.                                                     But


G|------- ------- ------- -------|------- ------- ------- -------|
D|--------4----------------------|-------------------------------|
A|----------------5--------------|-------------------------------|
E|5\----------------------5------|-------------------------------|
  I've    been    watching you,           and I   don't   that you'll
                                                      think

G|------- ------- ------- -------|------- ------- ------- -------|
D|7-----------7---7--------------|-------------------------------|
A|-------------------------------|-------------------------------|
E|-------------------------------|5-----------5---5--------------|
  gain,                                   Girl,   no  need  to ex-
                                              there's

G|------- ------- ------- -------|------- ------- ------- -------|
D|7-----------7------------------|-------------------------------|
A|-------------------------------|7---7---7---7---7---7---7---7--|
E|-------------------------------|-------------------------------|
  plain.                                  A - ny  way that you want

Refrain:
G|------- ------- ------- -------|------- ------- ------- -------|
D|-------------------------------|----------------------------7--|
A|----------------5---5---5------|7-------7-------5---5---5------|
E|5-------5----------------------|-------------------------------|
      me,                                 a - ny  way that    take
                                                          you'll

G|------- ------- ------- -------|------- ------- ------- -------|
D|-------------------------------|----------------------------7--|
A|----------------5---5---5------|7-------7-------5---5---5------|
E|5-------5----------------------|-------------------------------|
      me,                                 A - ny  way that    make
                                                          you'll

G|------- ------- ------- -------|------- ------- ------- -------|
D|-------------------------------|--------------------7---7------|
A|----------------5---5----------|7-------7-------5--------------|
E|5-------5----------------------|-------------------------------|
      me  be      part of     you,        a - ny  way at      all.


G|------- ------- ------- -------|------- ------- ------- -------|
D|-------------------------------|-------------------------------|
A|7---7---7---7-------7---7---7--|7---7---7---7---7---7---7---7--|
E|-------------------------------|-------------------------------|
                                                              These

Verse:
G|------- ------- ------- -------|------- ------- ------- -------|
D|-------------------------------|7-----------7------------------|
A|-------------------------------|-------------------------------|
E|5-----------5------------------|-------------------------------|
  dreams in  your heart,                      a  love last    for-


G|------- ------- ------- -------|------- ------- ------- -------|
D|-------------------------------|7-----------7---7--------------|
A|-------------------------------|-------------------------------|
E|5-----------5---5--------------|-------------------------------|
  e - ver,                                                From the


G|------- ------- ------- -------|------- ------- ------- -------|
D|-------------------------------|7-----------7---7--------------|
A|-------------------------------|-------------------------------|
E|5-----------5---5--------------|-------------------------------|
  depth of   my   soul,                   I'll    make them   come


G|------- ------- ------- -------|------- ------- ------- -------|
D|-------------------------------|7-----------7---7--------------|
A|-------------------------------|-------------------------------|
E|5-----------5---5--------------|-------------------------------|
  true.                                                       But


G|------- ------- ------- -------|------- ------- ------- -------|
D|--------4----------------------|-------------------------------|
A|----------------5--------------|-------------------------------|
E|5\----------------------5------|-------------------------------|
  I've    been    watching you,           and I   don't   that you'll
                                                      think

G|------- ------- ------- -------|------- ------- ------- -------|
D|7-----------7---7--------------|-------------------------------|
A|-------------------------------|-------------------------------|
E|-------------------------------|5-----------5---5--------------|
  gain,                                   Girl,   no  need  to ex-
                                              there's

G|------- ------- ------- -------|------- ------- ------- -------|
D|7-----------7---7--------------|-------------------------------|
A|-------------------------------|7---7---7---7---7---7---7---7--|
E|-------------------------------|-------------------------------|
  plain.                                  A - ny  way that you want

Refrain:
G|------- ------- ------- -------|------- ------- ------- -------|
D|-------------------------------|-------------------------------|
A|----------------5---5---5------|7-------7-------5---5---5------|
E|5-------5----------------------|-------------------------------|
      me,                                 a - ny  way that    take
                                                          you'll

G|------- ------- ------- -------|------- ------- ------- -------|
D|-------------------------------|----------------------------7--|
A|----------------5---5---5------|7-------7-------5---5---5------|
E|5-------5----------------------|-------------------------------|
      me,                                 A - ny  way that    make
                                                          you'll

G|------- ------- ------- -------|------- ------- ------- -------|
D|-------------------------------|--------------------7---7------|
A|----------------5---5---5------|7-------7-------5--------------|
E|5-------5----------------------|-------------------------------|
      me  be      part of     you,        a - ny  way at      all.


G|------- ------- ------- -------|------- ------- ------- -------|
D|-------------------------------|-------------------------------|
A|7---7---7---7-------7---7---7--|7---7---7---7---7---7---7---7--|
E|-------------------------------|-------------------------------|
                                          A - ny  way that you want

Refrain:
G|------- ------- ------- -------|------- ------- ------- -------|
D|-------------------------------|-------------------------------|
A|----------------5---5---5------|7-------7-------5---5---5------|
E|5-------5----------------------|-------------------------------|
      me,                                 a - ny  way that    take
                                                          you'll

G|------- ------- ------- -------|------- ------- ------- -------|
D|-------------------------------|----------------------------7--|
A|----------------5---5---5------|7-------7-------5---5---5------|
E|5-------5----------------------|-------------------------------|
      me,                                 A - ny  way that    make
                                                          you'll

G|------- ------- ------- -------|------- ------- ------- -------|
D|-------------------------------|-------------------------------|
A|----------------5---5---5------|7-------7-------5---5---5------|
E|5-------5----------------------|-------------------------------|
      me  be      part of     you,        a - ny  way at      all.


G|------- ------- ------- -------|------- ------- ------- -------|
D|-------------------------------|-------------------------------|
A|7---7---7---7-------7---7---7--|7---7---7---7-------7---7---7--|
E|-------------------------------|-------------------------------|



G|------- ------- ------- -------|------- ------- ------- -------|
D|-------------------------------|-------------------------------|
A|7---7---7---7-------7---7---7--|7---7---7---7---7---7---7---7--|
E|-------------------------------|-------------------------------|
                                          A - ny  way that you want

Refrain:
G|------- ------- ------- -------|------- ------- ------- -------|
D|-------------------------------|----------------------------7--|
A|----------------5---5---5------|7-------7-------5---5---5------|
E|5-------5----------------------|-------------------------------|
      me,                                 a - ny  way that    take
                                                          you'll

G|------- ------- ------- -------|------- ------- ------- -------|
D|-------------------------------|-------------------------------|
A|----------------5---5---5------|7-------7-------5---5---5------|
E|5-------5----------------------|-------------------------------|
      me,                                 A - ny  way that    make
                                                          you'll

G|------- ------- ------- -------|------- ------- ------- -------|
D|-------------------------------|--------------------7---7------|
A|----------------5---5---5------|7-------7-------5--------------|
E|5-------5----------------------|-------------------------------|
      me  be      part of     you,        a - ny  way at      all.
Fade out...

Please e-mail me for any corrections, or write a comment.
Suggest correction
Creating personal tab
Creating personal tab
You can edit any tab online and save it as your Personal.

You can edit, replace or remove any tab part or add personal notes – all changes will be seen only by you.

Personal tabs can be accessed anytime from any device, even offline.
Learn more »
Give kudos to tab author, rate the tab!
1 2 3 4 5
comments
print report bad tab
guest
You may want to rate the tab now too:
select rating
Wanna post a correction for this tab? Suggest correction