Oops, an error
Loading. Please wait.

Give It To Me Bass Tab

663 views 3 this week
no commentswrite comment
1 2 3 4 5
please rate
add to favorites
launch autoscroll
font size
0
reset
guitar tuner
Tab Pro tools
  • play this tab
  • loop segment
  • change instrument
  • show fretboard
  • metronome
×
Best way to learn
"Give It To Me"
Autoscroll
slow
fast
+/-
esc
set tempo
stop
Contributor
Give It To Me
The Troggs
Written by Reg Presley; released as a single with "You're Lying" as the B-
side, and on the album "Give It To Me".

Intro:
G|------- ------- ------- -------|------- ------- ------- -------|
D|-------------------------------|-------------------------------|
A|-------------------------------|----------------------------7--|
E|-------------------------------|-------------------------------|



G|------- ------- ------- -------|------- ------- ------- -------|
D|-------------------------------|-------------------------------|
A|----------------------------7--|----------------------------7--|
E|5---5---5---5---5---5---5------|5---5---5---5---5---5---5------|



G|------- ------- ------- -------|------- ------- ------- -------|
D|-------------------------------|-------------------------------|
A|----------------------------7--|----------------------------7--|
E|5---5---5---5---5---5---5------|5---5---5---5---5---5---5------|


Verse:
G|------- ------- ------- -------|------- ------- ------- -------|
D|-------------------------------|-------------------------------|
A|----------------------------7--|----------------------------7--|
E|5---5---5---5---5---5---5------|5---5---5---5---5---5---5------|
  Give it to  me,                 give it to  me,


G|------- ------- ------- -------|------- ------- ------- -------|
D|-------------------------------|-------------------------------|
A|5---5---5---5---5---5---5------|5---5---5---5---5---5---5---7--|
E|----------------------------5--|-------------------------------|
  all your    love,               all your    love,


G|------- ------- ------- -------|------- ------- ------- -------|
D|-------------------------------|-------------------------------|
A|----------------------------7--|----------------------------7--|
E|5---5---5---5---5---5---5------|5---5---5---5---5---5---5------|
  Give it to  me,                 give it to  me,


G|------- ------- ------- -------|------- ------- ------- -------|
D|-------------------------------|-------------------------------|
A|5---5---5---5---5---5---5---7--|5---5---5---5---5---5---5---7--|
E|-------------------------------|-------------------------------|
  all your    love,               all your    love,           And


G|------- ------- ------- -------|------- ------- ------- -------|
D|-------------------------------|-------------------------------|
A|----------------------------7--|----------------------------7--|
E|5---5---5---5---5---5---5------|5---5---5---5---5---5---5------|
  I'll know,                                                  and


G|------- ------- ------- -------|------- ------- ------- -------|
D|-------------------------------|-------------------------------|
A|----------------------------7--|----------------------------7--|
E|5---5---5---5---5---5---5------|5---5---5---5---5---5---5------|
  I'll know.

Verse:
G|------- ------- 6---9-- 7---6--|------- ------- 6---9-- 7-\-6--|
D|7---7---7---7------------------|7---7---7---7------------------|
A|-------------------------------|-------------------------------|
E|-------------------------------|-------------------------------|
  When    you call,               when    you call,


G|------- ------- ------- -------|------- ------- ------- -------|
D|----------------4---7---5-\-4--|----------------4---7---5-\-4--|
A|5---5---5---5------------------|5---5---5---5------------------|
E|-------------------------------|-------------------------------|
  I'll be     there,              I'll be     there,


G|------- ------- 6---9-- 7---6--|------- ------- 6---9-- 7---6--|
D|7---7---7---7------------------|7---7---7---7------------------|
A|-------------------------------|-------------------------------|
E|-------------------------------|-------------------------------|
  When    you call,               when    you call,


G|------- ------- ------- -------|------- ------- ------- -------|
D|----------------4---7---5-\-4--|----------------4---7---5---7--|
A|5---5---5---5------------------|5---5---5---5------------------|
E|-------------------------------|-------------------------------|
  I'll be     there,              I'll be     there,          And


G|------- ------- 6---9-- 7---6--|------- ----6-- ------- -------|
D|7---7---7---7------------------|7---7-----------9-------7------|
A|-------------------------------|-------------------------------|
E|-------------------------------|-------------------------------|
  I'll know,                                                  and


G|------- ------- 6---9-- 7---6--|7---7-- ----6-- ------- -------|
D|7---7---7---7------------------|----------------9-------7------|
A|-------------------------------|-------------------------------|
E|-------------------------------|-------------------------------|
  I'll know.

Bridge:
G|------- ------- ------- -------|------- ------- ------- -------|
D|----------------4---7---5-\-4--|----------------4---7---5---7--|
A|5---5---5---5------------------|5---5---5---5------------------|
E|-------------------------------|-------------------------------|
  Darling,    I   know            you'll come to  me,


G|------- ------- 6---9-- 7---6--|------- ------- 6---9-- 7---6--|
D|7---7---7---7------------------|7---7---7---7------------------|
A|-------------------------------|-------------------------------|
E|-------------------------------|-------------------------------|
  I'll be     there wai - ting    so  pati -  ently.


G|------- ------- ------- -------|------- ------- ------- -------|
D|----------------4---7---5-\-4--|----------------4---7---5-\-4--|
A|5---5---5---5------------------|5---5---5---5------------------|
E|-------------------------------|-------------------------------|
  All that    I   want,           all that    I   need        is


G|------- ------- ------- -------|------- ------- ------- -------|
D|-------------------------------|-------------------------------|
A|7---7---7---7---7---7---7---7--|7---7---7---7---7---7---7---7--|
E|-------------------------------|-------------------------------|
  someone     to  love me,    and so,


G|------- ------- ------- -------|
D|-------------------------------|
A|8---8---8---8---8---8---8---8--|
E|-------------------------------|


Verse:
G|------- ------- 7---10- 8---7--|------- ------- 7---10- 8---7--|
D|8---8---8---8------------------|8---8---8---8------------------|
A|-------------------------------|-------------------------------|
E|-------------------------------|-------------------------------|
  Give it to  me,                 give it to  me,


G|------- ------- ------- -------|------- ------- ------- -------|
D|----------------5---8---6-\-5--|----------------5---8---6---8--|
A|6---6---6---6------------------|6---6---6---6------------------|
E|-------------------------------|-------------------------------|
  all your    love,               all your    love,


G|------- ------- 7---10- 8---7--|------- ------- 7---10- 8---7--|
D|8---8---8---8------------------|8---8---8---8------------------|
A|-------------------------------|-------------------------------|
E|-------------------------------|-------------------------------|
  Give it to  me,                 give it to  me,


G|------- ------- ------- -------|------- ------- ------- -------|
D|----------------5---8---6-\-5--|----------------5---8---6---8--|
A|6---6---6---6------------------|6---6---6---6------------------|
E|-------------------------------|-------------------------------|
  all your    love,               all your    love,           And


G|------- ------- 7---10- 8---7--|------- ------- 7---10- 8---7--|
D|8---8---8---8------------------|8---8---8---8------------------|
A|-------------------------------|-------------------------------|
E|-------------------------------|-------------------------------|
  I'll know,                                                  and


G|------- ------- 7---10- 8---7--|------- ------- 7---10- 8---7--|
D|8---8---8---8------------------|8---8---8---8------------------|
A|-------------------------------|-------------------------------|
E|-------------------------------|-------------------------------|
  I'll know.                                              Aah,

Outro:
G|------- ------- 7---10- 8---7--|------- ------- 7---10- 8-\-7--|
D|8---8---8---8------------------|8---8---8---8------------------|
A|-------------------------------|-------------------------------|
E|-------------------------------|-------------------------------|
  give it to  me,                 give it to  me,


G|------- ------- ------- -------|------- ------- ------- -------|
D|----------------5---8---6-\-5--|----------------5---8---6---8--|
A|6---6---6---6------------------|6---6---6---6------------------|
E|-------------------------------|-------------------------------|
  all your    love,               all your    love,


G|------- ------- 7---10- 8-\-7--|------- ------- 7---10- 8-\-7--|
D|8---8---8---8------------------|8---8---8---8------------------|
A|-------------------------------|-------------------------------|
E|-------------------------------|-------------------------------|
  Give it to  me,                 give it to  me,


G|------- ------- ------- -------|------- ------- ------- -------|
D|----------------5---8---6-\-5--|----------------5---8---6---8--|
A|6---6---6---6------------------|6---6---6---6------------------|
E|-------------------------------|-------------------------------|
  all your    love,               all your    love,           Ah,


G|------- ------- 7---10- 8---7--|------- ------- 7---10- 8-\-7--|
D|8---8---8---8------------------|8---8---8---8------------------|
A|-------------------------------|-------------------------------|
E|-------------------------------|-------------------------------|
  give it to  me,                 give it to  me,


G|------- ------- ------- -------|------- ------- ------- -------|
D|----------------5---8---6-\-5--|----------------5---8---6---8--|
A|6---6---6---6------------------|6---6---6---6------------------|
E|-------------------------------|-------------------------------|
  all your    love,               all your    love,
fade out...

Please e-mail me for any corrections, or write a comment.
comments
We did not receive enough feedback on this tab! Please rate:
print report bad tab
1 2 3 4 5
I want to post or [tab]
guest
You may want to rate the tab now too:
select rating
Please do not post tabs as comments. Select "correction" instead!