Oops, an error
Loading. Please wait.

Wild Thing Tab

version 3
version 3

Whole song

Interactive

Video

11,120 views 6 this week
2 commentsread comments
1 2 3 4 5
x 13
add to favorites
launch autoscroll
font size
0
reset
how to read this tab
guitar tuner
×
Best way to learn
"Wild Thing"
Autoscroll
slow
fast
+/-
esc
set tempo
stop
Title: Wild Thing 
Artist: The Troggs
Tabbed by:Darian
Email:scotty__13@hotmail.com

Tuning:Standard(EADGBe)
Guitar 1: Clean Electric

Intro
e|------------------------------------------------------------------------|
B|------------------------------------------------------------------------|
G|----------7-7------9-9------7-7---------------7-7------9-9------7-7-7-7-|
D|-7-7------7-7-xxxx-9-9-xxxx-7-7-xxxx-7-7------7-7-xxxx-9-9-xxxx-7-7-7-7-|X2
A|-7-7-xxxx-5-5-xxxx-7-7-xxxx-5-5-xxxx-7-7-xxxx-5-5-xxxx-7-7-xxxx-5-5-5-5-|
E|-5-5-xxxx----------------------------5-5-xxxx---------------------------|

Verse
e|------------------------------------------------------------------------|
B|------------------------------------------------------------------------|
G|----------7-7------9-9------7-7---------------7-7------9-9------7-7-7-7-|
D|-7-7------7-7-xxxx-9-9-xxxx-7-7-xxxx-7-7------7-7-xxxx-9-9-xxxx-7-7-7-7-|X2
A|-7-7-xxxx-5-5-xxxx-7-7-xxxx-5-5-xxxx-7-7-xxxx-5-5-xxxx-7-7-xxxx-5-5-5-5-|
E|-5-5-xxxx----------------------------5-5-xxxx---------------------------|
   Wild thing                  You make my heart sing
   You make everything groovy  Wild thing
   
(no guitar)
Wild thing, I think I love you

Interlude
e|--------------------------------------------------------|
B|--------------------------------------------------------|
G|-7-9-7-----------------------7-9-7----------------------|
D|-7-9-7-7---------------------7-9-7-7--------------------|
A|-5-7-5-7~--------------------5-7-5-7~-------------------|
E|-------5~--------------------------5~-------------------|
   But I wanna know for sure   Come on and hold me tight   I love you

Verse
e|------------------------------------------------------------------------|
B|------------------------------------------------------------------------|
G|----------7-7------9-9------7-7---------------7-7------9-9------7-7-7-7-|
D|-7-7------7-7-xxxx-9-9-xxxx-7-7-xxxx-7-7------7-7-xxxx-9-9-xxxx-7-7-7-7-|X2
A|-7-7-xxxx-5-5-xxxx-7-7-xxxx-5-5-xxxx-7-7-xxxx-5-5-xxxx-7-7-xxxx-5-5-5-5-|
E|-5-5-xxxx----------------------------5-5-xxxx---------------------------|

e|------------------------------------------------------------------------|
B|------------------------------------------------------------------------|
G|----------7-7------9-9------7-7---------------7-7------9-9------7-7-7-7-|
D|-7-7------7-7-xxxx-9-9-xxxx-7-7-xxxx-7-7------7-7-xxxx-9-9-xxxx-7-7-7-7-|X2
A|-7-7-xxxx-5-5-xxxx-7-7-xxxx-5-5-xxxx-7-7-xxxx-5-5-xxxx-7-7-xxxx-5-5-5-5-|
E|-5-5-xxxx----------------------------5-5-xxxx---------------------------|
   Wild thing                  You make my heart sing
   You make everything groovy  Wild thing

(no guitar)
Wild thing, I think you move me

Interlude
e|--------------------------------------------------------|
B|--------------------------------------------------------|
G|-7-9-7-----------------------7-9-7----------------------|
D|-7-9-7-7---------------------7-9-7-7--------------------|
A|-5-7-5-7~--------------------5-7-5-7~-------------------|
E|-------5~--------------------------5~-------------------|
   But I wanna know for sure   So c'mon and hold me tight  You move me

Verse
e|------------------------------------------------------------------------|
B|------------------------------------------------------------------------|
G|----------7-7------9-9------7-7---------------7-7------9-9------7-7-7-7-|
D|-7-7------7-7-xxxx-9-9-xxxx-7-7-xxxx-7-7------7-7-xxxx-9-9-xxxx-7-7-7-7-|X2
A|-7-7-xxxx-5-5-xxxx-7-7-xxxx-5-5-xxxx-7-7-xxxx-5-5-xxxx-7-7-xxxx-5-5-5-5-|
E|-5-5-xxxx----------------------------5-5-xxxx---------------------------|

e|------------------------------------------------------------------------|
B|------------------------------------------------------------------------|
G|----------7-7------9-9------7-7---------------7-7------9-9------7-7-7-7-|
D|-7-7------7-7-xxxx-9-9-xxxx-7-7-xxxx-7-7------7-7-xxxx-9-9-xxxx-7-7-7-7-|X2
A|-7-7-xxxx-5-5-xxxx-7-7-xxxx-5-5-xxxx-7-7-xxxx-5-5-xxxx-7-7-xxxx-5-5-5-5-|
E|-5-5-xxxx----------------------------5-5-xxxx---------------------------|
   Wild thing                  You make my heart sing
   You make everything groovy  Wild thing

Outro(fade out)
e|------------------------------------------------------------------------|
B|------------------------------------------------------------------------|
G|----------7-7------9-9------7-7---------------7-7------9-9------7-7-7-7-|
D|-7-7------7-7-xxxx-9-9-xxxx-7-7-xxxx-7-7------7-7-xxxx-9-9-xxxx-7-7-7-7-|X2
A|-7-7-xxxx-5-5-xxxx-7-7-xxxx-5-5-xxxx-7-7-xxxx-5-5-xxxx-7-7-xxxx-5-5-5-5-|
E|-5-5-xxxx----------------------------5-5-xxxx---------------------------|
   Wild thing C'mon, c'mon, wild thing Shake it shake it, wild thing 

| /  slide up
| \  slide down
| h  hammer-on
| p  pull-off
| ~  vibrato
| +  harmonic
| x  Mute note
=============================================================================
Suggest correction
comments
print report bad tab
2 comments total.
+1 reply
OttovanZanten 92 Aug 19, 2006 04:08 AM

shouldn't the interlude be

e|--------------------------------------------------------|
B|--------------------------------------------------------|
G|-7-9-7-9---------------------7-9-7-9-------------------|
D|-7-9-7-9---------------------7-9-7-7-------------------|
A|-5-7-5-7---------------------5-7-5-7-------------------|
E|--------------------------------------------------------|
But I wanna know for sure So c'mon and hold me tight You move me


Instead of:

e|--------------------------------------------------------|
B|--------------------------------------------------------|
G|-7-9-7-----------------------7-9-7----------------------|
D|-7-9-7-7---------------------7-9-7-7--------------------|
A|-5-7-5-7~--------------------5-7-5-7~-------------------|
E|-------5~--------------------------5~-------------------|
But I wanna know for sure So c'mon and hold me tight You move me


sounds a whole lot better 2 me ^^

+1 reply
punishment 10 Sep 07, 2006 05:51 PM

Very well orginized

guest
You may want to rate the tab now too:
select rating
Wanna post a correction for this tab? Suggest correction