Oops, an error
Loading. Please wait.

Piece By Piece Bass Tab

344 views 1 this week
no commentswrite comment
1 2 3 4 5
please rate
add to favorites
launch autoscroll
font size
0
reset
guitar tuner
Tab Pro tools
  • play this tab
  • loop segment
  • change instrument
  • show fretboard
  • metronome
×
Best way to learn
"Piece By Piece"
Autoscroll
slow
fast
+/-
esc
set tempo
stop
Contributor
Piece By Piece by the Tubes
(standard tuning)


|---|--------------------|
|---|--------------------|
|-3-|-3-5--5-3--3-5--5-3-|
|---|--------------------|
     3 times

|------------------------|
|-------------2-----2----|
|-5-3--3-5--5-----5------|
|----------------------0-|


|---------------------------|------------------|
|---------------------------|------------------|
|-5-5-5-5--5-5-5-5--3----5--|-5--3----2--3--3--|
|---------------------5-----|-------5----------|

Chorus
|----------------------------------------------------|---------------|
|----------------------------------------------------|---------------|
|---------------------------------5-5-5------------5-|-3-3-5---------|
|-5--5-5---0-3-5---5--5-5---0-3-5--------2--3--3-3---|-------0-0-0-0-|
comments
We did not receive enough feedback on this tab! Please rate:
print report bad tab
1 2 3 4 5
I want to post or [tab]
guest
You may want to rate the tab now too:
select rating
Please do not post tabs as comments. Select "correction" instead!