Oops, an error
Loading. Please wait.

K Tab

version 2
version 2

Intro

Whole song

Interactive

557 views 1 this week
no commentswrite comment
1 2 3 4 5
please rate
add to favorites
launch autoscroll
font size
0
reset
how to read this tab
guitar tuner
Tab Pro tools
  • play this tab
  • loop segment
  • change instrument
  • show fretboard
  • metronome
×
Best way to learn
"K"
Autoscroll
slow
fast
+/-
esc
set tempo
stop
Contributor
Difficulty
novice
E-----7----77------77-------777-10-7---------------------------------|
B-555---5------5-------55------------77778877------------------------|
G--------------------------------------------------------------------|
D--------------------------------------------------------------------|
A--------------------------------------------------------------------|
E--------------------------------------------------------------------|

or

E----000-7-0-77-0-77-00-777-10-7-22223322----------------------------|
B--------------------------------------------------------------------|
G--------------------------------------------------------------------|
D--------------------------------------------------------------------|
A--------------------------------------------------------------------|
E--------------------------------------------------------------------|

or

E------------------------------------------10-----------------------------|
B---------12-----1212-----1212-----121212------12-------------------------|
G--9-9-9------9-------9--------99-----------------11-11-11-11-12-12-11-11-|
D-------------------------------------------------------------------------|
A-------------------------------------------------------------------------|
E-------------------------------------------------------------------------|

this is an awsome some with many different ways to play it-sorry i couldnt get the bass 
it though.....if sum1 knows it could they plz email it to me
@ snivage_pie0@yahoo.co.nz
comments
We did not receive enough feedback on this tab! Please rate:
print report bad tab
1 2 3 4 5
I want to post or [tab]
guest
You may want to rate the tab now too:
select rating
Please do not post tabs as comments. Select "correction" instead!