Oops, an error
Loading. Please wait.

K Tab

version 1
version 1

Whole song

Interactive

2,566 views 1 this week
4 commentsread comments
1 2 3 4 5
accurate
x 5
add to favorites
launch autoscroll
font size
0
reset
how to read this tab
guitar tuner
Autoscroll
slow
fast
+/-
esc
set tempo
stop
Help us to improve Ultimate-Guitar.com Take our survey!
×
Author
Difficulty
novice
Now this tab aint perfect, but it is my first.
The solo guitar parts are based around a B minor chord at the 9th fret
(X-9-9-11-12-10) Its easiest to play with your index finger barred
accross the 9th fret and other fingers dancing across various strings.


MAIN GUITAR PART

E------------------------------------------10----------------------------]
B-------12---12-12----12-12-------12-12-12----12-------------------------]
G-9-9-9----9--------9-------9-9------------------11-11-11-11-12-12-11-11-]
D------------------------------------------------------------------------]
A------------------------------------------------------------------------]
E------------------------------------------------------------------------]

OTHER PART (Quicker)

E---------------------------------------------------------------------|
B-----12-12-10-10-------------------10-10-----------------------------|
G-9-9-------------12-12-11-11-12-12-------12-12-11-11-12-12-11-11-9-9-|
D---------------------------------------------------------------------|
A---------------------------------------------------------------------|
E---------------------------------------------------------------------|

-----------------------|-----------------------------------------------|
-----------------------|-----12-12-10-10-------------------10-10-------|
-----------12-12-11-11-|-9-9-------------12-12-11-11-12-12-------12-12-|
-12-12-9-9-------------|-----------------------------------------------|
-----------------------|-----------------------------------------------|
-----------------------|-----------------------------------------------|

----------------------10-10-------10----10-12-------]
-------------10-10----------12-12----12-------------]
-11-11-12-12-------12-------------------------------]
----------------------------------------------------]
----------------------------------------------------]
----------------------------------------------------]

CHORDS - VERSE & CHORUS - (These arent the perfect chords, but sound alright)

                                              TO
E--------------------------------------------]->[-------------------------]
B--------------------------------------------]->[-------------------------]
G-9-9-9-9--9--4-4-5--5-5-4-4--12-12-12-12--12]->[-11-11-11----11-11-11-11-]
D-9-9-9-9--9--4-4-5--5-5-4-4--12-12-12-12--12]->[-11-11-11----11-11-11-11-]
A-7-7-7-7--7--2-2-3--3-3-2-2--10-10-10-10--10]->[-9--9--9-----9--9--9--9--]
E-7-7-7-7--7--2-2-3--3-3-2-2--10-10-10-10--10]->[-9--9--9-----9--9--9--9--]

                                              OR
                                              ->[-------------------------]
                                              ->[-------------------------]
                                              ->[-11-11-11-11-12-12-11-11-]
                                              ->[-11-11-11-11-12-12-11-11-]
                                              ->[-9--9--9--9--10-10-9--9--]
                                              ->[-9--9--9--9--10-10-9--9--]
Suggest correction
What's this?
You can suggest a correction to this tab. Community and Mods will review your correction and vote to approve or reject it.
comments
print report bad tab
4 comments total. Showing first comments.
0 reply
boxie 403 wrote on August 30 2006, 04:56 am

Wow what a great accurate tab... been looking for one of theese for ages!!!

0 reply
devmate 11 wrote on September 15 2006, 06:29 am

hey dude just so you should know the chords that you have used it doesnt go down to the third and second bar on the E string it is actually the 7th and the 8th on the E... Otherwise sick tab your intro position is alot better than what i used to do it

0 reply
CaRrIe HuRlImAn 26 wrote on November 14 2006, 10:45 pm

what is that backround guitar doing you no the one in the intro??????????????????????????????????????????????????????????????????????????????????????????????????????????????????????????????????????????????????????/

guest
You may want to rate the tab now too:
select rating
Please do not post tabs as comments. Select "correction" instead!