Oops, an error
Loading. Please wait.

K Tab

version 2
version 2

Whole song

Interactive

937 views 1 this week
no commentswrite comment
1 2 3 4 5
please rate
add to favorites
launch autoscroll
font size
0
reset
how to read this tab
guitar tuner
Autoscroll
slow
fast
+/-
esc
set tempo
stop
Help us to improve Ultimate-Guitar.com Take our survey!
×
Author
Difficulty
intermediate
okay this my first tab so go easy.
any suggestions/comments/changes?
this song is best played with your amp on overdrive and a bit of gain.

>>listen to the song for rhythm -  u really need a copy of this song to play this well.
INTRO


can be played this way

E|---------------------------------------10--------------------------------|
A|-------12---12-12---12-12-----12-12-12----12-----------------------------|
D|-9-9-9----9-------9-------9-9-----------------11-11-11-11-12-12-11-11----|
G|-------------------------------------------------------------------------|
B|-------------------------------------------------------------------------|
E|-------------------------------------------------------------------------|

or this way

E|--0-0-0-7-0---7-7-0--7-7-0-0--7-7-10-7--2-2-2-2-3-3-2-2------------------|
A|-------------------------------------------------------------------------|
D|-------------------------------------------------------------------------|
G|-------------------------------------------------------------------------|
B|-------------------------------------------------------------------------|
E|-------------------------------------------------------------------------|

play intro x2

then this

E|-------------------------------------------------------------------------|
A|-------------------------------------------------------------------------|
D|-9-9-9-9--9------------------------12-12-12-12--12-----------------------|
G|-9-9-9-9--9--9-9-10-10-10-10-9-9---12-12-12-12--12--12-12-12--12-12-12-12|
B|-7-7-7-7--7--9-9-10-10-10-10-9-9---10-10-10-10--10--10-12-12--12-12-12-12|
E|-------------7-7--8--8--8--8-7-7--------------------10-10-10--10-10-10-10|

and thats played 4 times.

for this part the intro is played in the background with another guitar if you want to 
it as a band.

VERSE

the first bit of the verse there is no guitar, just singing.

"I guess you could say, that i need her" - no guitar
>>then >>

E|-------------------------------------------------------------------------|
A|-------------------------------------------------------------------------|
D|-----------------------------------12-12-12-12--12-----------------------|
G|-----------------------------------12-12-12-12--12--12-12-12--12-12-12-12|
B|-----------------------------------10-10-10-10--10--10-12-12--12-12-12-12|
E|----------------------------------------------------10-10-10--10-10-10-10|


"im doing everything, just to please her"
E|-------------------------------------------------------------------------|
A|-------------------------------------------------------------------------|
D|-9-9-9-9--9------------------------12-12-12-12--12-----------------------|
G|-9-9-9-9--9--9-9-10-10-10-10-9-9---12-12-12-12--12--12-12-12--12-12-12-12|
B|-7-7-7-7--7--9-9-10-10-10-10-9-9---10-10-10-10--10--10-12-12--12-12-12-12|
E|-------------7-7--8--8--8--8-7-7--------------------10-10-10--10-10-10-10|

"im taking her clothes, to the cleaners"
E|-------------------------------------------------------------------------|
A|-------------------------------------------------------------------------|
D|-9-9-9-9--9------------------------12-12-12-12--12-----------------------|
G|-9-9-9-9--9--9-9-10-10-10-10-9-9---12-12-12-12--12--12-12-12--12-12-12-12|
B|-7-7-7-7--7--9-9-10-10-10-10-9-9---10-10-10-10--10--10-12-12--12-12-12-12|
E|-------------7-7--8--8--8--8-7-7--------------------10-10-10--10-10-10-10|

"and her friends and families as well, and her friends and families as well.. lets go"
E|-------------------------------------------------------------------------|
A|-------------------------------------------------------------------------|
D|-9-9-9-9--9------------------------12-12-12-12--12-----------------------|
G|-9-9-9-9--9--9-9-10-10-10-10-9-9---12-12-12-12--12--12-12-12--12-12-12-12|
B|-7-7-7-7--7--9-9-10-10-10-10-9-9---10-10-10-10--10--10-12-12--12-12-12-12|
E|-------------7-7--8--8--8--8-7-7--------------------10-10-10--10-10-10-10|

CHORUS

E|-------------------------------------------------------------------------|
A|-------------------------------------------------------------------------|
D|-9-9-9-9--9------------------------12-12-12-12--12-----------------------|
G|-9-9-9-9--9--9-9-10-10-10-10-9-9---12-12-12-12--12--12-12-12--12-12-12-12|
B|-7-7-7-7--7--9-9-10-10-10-10-9-9---10-10-10-10--10--10-12-12--12-12-12-12|
E|-------------7-7--8--8--8--8-7-7--------------------10-10-10--10-10-10-10|

played x2. and if you are playing in a band you will have another guitar playing the 
at the same time

the rest of the song continues >

VERSE - same as first virse
then between the lyrics
"but then we jump in to your bed" - "its just a feeling, that must be shared"

all thats played is this power chord >

E|-------------------------------------------------------------------------|
A|-------------------------------------------------------------------------|
D|--12---------------------------------------------------------------------|
G|--12---------------------------------------------------------------------|
B|--10---------------------------------------------------------------------|
E|-------------------------------------------------------------------------|

over and over again, the rhythm you will need to listen to the song for because i am not sure.

last bit of the verse is played with the normal chords again


BRIDGE - played like this -  with chord backing
E---------------------------------------------------------------------|
B-----12-12-10-10-------------------10-10-----------------------------|
G-9-9-------------12-12-11-11-12-12-------12-12-11-11-12-12-11-11-9-9-|
D---------------------------------------------------------------------|
A---------------------------------------------------------------------|
E---------------------------------------------------------------------|

-----------------------|-----------------------------------------------|
-----------------------|-----12-12-10-10-------------------10-10-------|
-----------12-12-11-11-|-9-9-------------12-12-11-11-12-12-------12-12-|
-12-12-9-9-------------|-----------------------------------------------|
-----------------------|-----------------------------------------------|
-----------------------|-----------------------------------------------|

----------------------10-10-------10----10-12-------|
-------------10-10----------12-12----12-------------|
-11-11-12-12-------12-------------------------------|
----------------------------------------------------|
----------------------------------------------------|
----------------------------------------------------|

CHORUS

start of verse
and then between lyrics >

"but then we jump into your bed" - "It's just a feeling that must be shared"
play with the one power chord again.

E|-------------------------------------------------------------------------|
A|-------------------------------------------------------------------------|
D|--12---------------------------------------------------------------------|
G|--12---------------------------------------------------------------------|
B|--10---------------------------------------------------------------------|
E|-------------------------------------------------------------------------|

last bit of verse played with chords again
BRIDGE - chord backing

and that is the song
Suggest correction
What's this?
You can suggest a correction to this tab. Community and Mods will review your correction and vote to approve or reject it.
comments
We did not receive enough feedback on this tab! Please rate:
print report bad tab
1 2 3 4 5
guest
You may want to rate the tab now too:
select rating
Please do not post tabs as comments. Select "correction" instead!