Oops, an error
Loading. Please wait.

K Tab

version 3
version 3

Whole song

Interactive

182 views 1 this week
no commentswrite comment
1 2 3 4 5
please rate
add to favorites
launch autoscroll
font size
0
reset
how to read this tab
guitar tuner
Autoscroll
slow
fast
+/-
esc
set tempo
stop
Help us to improve Ultimate-Guitar.com Take our survey!
×
Tabbed By E Regan
This is the entire song start to finish
Note:listen to song while playing to get strumming on chords down


  Gt 1
 e-----------------------------------10----------------------------------|
 b------12---12-12--12-12----12-12-12---12-------------------------------|
 g--9-9----9-------9-----9-9--------------11-11-11-11-12-12-11-11--------|
 d-----------------------------------------------------------------------|
 a-----------------------------------------------------------------------|
 e-----------------------------------------------------------------------|

  Gt 2
 e----------------------------------------------------------------------|
 b----------------------------------------------------------------------|
 g----------------------------------------------------------------------|
 d----------------------------------------------------------------------|
 b----------------------------------------------------------------------|
 e----------------------------------------------------------------------|

  Gt 1
 e-------------------------------------10--------------------------------|
 b-------12---12-12--12-12-----12-12-12---12-----------------------------|
 g-9-9-9----9-------9------9-9---------------11-11-11-11-12-12-11-11-----|
 d-----------------------------------------------------------------------|
 a-----------------------------------------------------------------------|
 e-----------------------------------------------------------------------|

  Gt 2
 e-----------------------------------------------------------------------|
 b-----------------------------------------------------------------------|
 g-----------------------------------------------------------------------|
 d-----------------------------------------------------------------------|
 b-----------------------------------------------------------------------|
 e-----------------------------------------------------------------------|

  Gt 1  Play 4 Times
 e-------------------------------------10---------------------------------|
 b-------12---12-12--12-12-----12-12-12---12------------------------------|
 g-9-9-9----9-------9------9-9--------------11-11-11-11-12-12-11-11-------|
 d------------------------------------------------------------------------|
 a------------------------------------------------------------------------|
 e------------------------------------------------------------------------|

 Gt 2
 e-----------------------------------------------------------------------|
 b-9-9-9-9--9------------------12-12-12-12--12---------------------------|
 g-9-9-9-9--9-8-8--8--9-9-8-8--12-12-12-12--12-11-11-11--11-11-11-11-----|
 d-9-9-9-9--9-9-9--10-10109-9--12-12-12-12--12-12-12-12--12-12-12-12-----|
 a-7-7-7-7--7-9-9--10-10109-9--10-10-10-10--10-12-12-12--12-12-12-12-----|
 e------------7-7--8--8-8-7-7------------------10-10-10--10-10-10-10-----|

 Gt1 (I guess you can say....)  Play 1 Time
 e----------------------------------------------------------------------|
 b----------------------------------------------------------------------|
 g----------------------------------------------------------------------|
 d----------------------------------------------------------------------|
 a----------------------------------------------------------------------|
 e----------------------------------------------------------------------|

   Gt2
 e----------------------------------------------------------------------|
 b----------------------------12-12-12-12--12---------------------------|
 g----------------------------12-12-12-12--12-11-11-11--11-11-11-11-----|
 d----------------------------12-12-12-12--12-12-12-12--12-12-12-12-----|
 a----------------------------10-10-10-10--10-12-12-12--12-12-12-12-----|
 e--------------------------------------------10-10-10--10-10-10-10-----|

   Gt1     Play 4 Time
 e----------------------------------------------------------------------|
 b----------------------------------------------------------------------|
 g----------------------------------------------------------------------|
 d----------------------------------------------------------------------|
 a----------------------------------------------------------------------|
 e----------------------------------------------------------------------|

  Gt 2
 e-----------------------------------------------------------------------|
 b-9-9-9-9--9------------------12-12-12-12--12---------------------------|
 g-9-9-9-9--9-8-8--8--9-9-8-8--12-12-12-12--12-11-11-11--11-11-11-11-----|
 d-9-9-9-9--9-9-9--10-10109-9--12-12-12-12--12-12-12-12--12-12-12-12-----|
 a-7-7-7-7--7-9-9--10-10109-9--10-10-10-10--10-12-12-12--12-12-12-12-----|
 e------------7-7--8--8-8-7-7------------------10-10-10--10-10-10-10-----|

 Gt 1     Play 2 Times
 e-------------------------------------10---------------------------------|
 b-------12---12-12--12-12-----12-12-12---12------------------------------|
 g-9-9-9----9-------9------9-9--------------11-11-11-11-12-12-11-11-------|
 d------------------------------------------------------------------------|
 a------------------------------------------------------------------------|
 e------------------------------------------------------------------------|

 Gt 2
 e-----------------------------------------------------------------------|
 b-9-9-9-9--9------------------12-12-12-12--12---------------------------|
 g-9-9-9-9--9-8-8--8--9-9-8-8--12-12-12-12--12-11-11-11--11-11-11-11-----|
 d-9-9-9-9--9-9-9--10-10109-9--12-12-12-12--12-12-12-12--12-12-12-12-----|
 a-7-7-7-7--7-9-9--10-10109-9--10-10-10-10--10-12-12-12--12-12-12-12-----|
 e------------7-7--8--8-8-7-7------------------10-10-10--10-10-10-10-----|

Gt1     Play 5 Times
 e----------------------------------------------------------------------|
 b----------------------------------------------------------------------|
 g----------------------------------------------------------------------|
 d----------------------------------------------------------------------|
 a----------------------------------------------------------------------|
 e----------------------------------------------------------------------|


Gt 2
 e-----------------------------------------------------------------------|
 b-9-9-9-9--9------------------12-12-12-12--12---------------------------|
 g-9-9-9-9--9-8-8--8--9-9-8-8--12-12-12-12--12-11-11-11--11-11-11-11-----|
 d-9-9-9-9--9-9-9--10-10109-9--12-12-12-12--12-12-12-12--12-12-12-12-----|
 a-7-7-7-7--7-9-9--10-10109-9--10-10-10-10--10-12-12-12--12-12-12-12-----|
 e------------7-7--8--8-8-7-7------------------10-10-10--10-10-10-10-----|

 Gt1     Play 3 Times
 e----------------------------------------------------------------------|
 b----------------------------------------------------------------------|
 g----------------------------------------------------------------------|
 d----------------------------------------------------------------------|
 a----------------------------------------------------------------------|
 e----------------------------------------------------------------------|

  Gt2
 e----------------------------------------------------------------------|
 b-9-9-9-9--9--9-9-9--9-9-9-9-12-12-12-12-------------------------------|
 d-9-9-9-9--9--9-9-9--9-9-9-9-12-12-12-12-11-11-11--11-11-11-11---------|
 g-9-9-9-9--9--9-9-9--9-9-9-9-12-12-12-12-12-12-12--12-12-12-12---------|
 a-7-7-7-7--7--7-7-7--7-7-7-7-10-10-10-10-12-12-12--12-12-12-12---------|
 e----------------------------------------10-10-10--10-10-10-10---------|

Gt1     Play 2 Times
 e----------------------------------------------------------------------|
 b----------------------------------------------------------------------|
 g----------------------------------------------------------------------|
 d----------------------------------------------------------------------|
 a----------------------------------------------------------------------|
 e----------------------------------------------------------------------|

Gt 2
 e-----------------------------------------------------------------------|
 b-9-9-9-9--9------------------12-12-12-12--12---------------------------|
 g-9-9-9-9--9-8-8--8--9-9-8-8--12-12-12-12--12-11-11-11--11-11-11-11-----|
 d-9-9-9-9--9-9-9--10-10109-9--12-12-12-12--12-12-12-12--12-12-12-12-----|
 a-7-7-7-7--7-9-9--10-10109-9--10-10-10-10--10-12-12-12--12-12-12-12-----|
 e------------7-7--8--8-8-7-7------------------10-10-10--10-10-10-10-----|

Gt1 (solo)
 e--------------------------------------------------------------------------|
 b----12-12-10-10-----------------10-10-------------------------------------|
 g-9-9-----------12-12-11-11-12-12-----12-12-11-11-12-12-11-11-9-9----------|
 d----------------------------------------------------------------12-12-9-9-|
 a--------------------------------------------------------------------------|
 e--------------------------------------------------------------------------|
Gt1
 e--------------------------------------------------------------------------|
 b----------------12-12-10-10-----------------10-10-----------------10-10---|
 g-12-12-11-11-9-9-----------12-12-11-11-12-12-----12-12-11-11-12-12-----12-|
 d--------------------------------------------------------------------------|
 a--------------------------------------------------------------------------|
 e--------------------------------------------------------------------------|
Gt1
 e-10-10-----10--10-12-----------------------------------------------------|
 b------12-12--12----------------------------------------------------------|
 g-------------------------------------------------------------------------|
 d-------------------------------------------------------------------------|
 a-------------------------------------------------------------------------|
 e-------------------------------------------------------------------------|


Gt 2            Played Twice while Gt1 plays solo
 e-----------------------------------------------------------------------|
 b-9-9-9-9--9------------------12-12-12-12--12---------------------------|
 g-9-9-9-9--9-8-8--8--9-9-8-8--12-12-12-12--12-11-11-11--11-11-11-11-----|
 d-9-9-9-9--9-9-9--10-10109-9--12-12-12-12--12-12-12-12--12-12-12-12-----|
 a-7-7-7-7--7-9-9--10-10109-9--10-10-10-10--10-12-12-12--12-12-12-12-----|
 e------------7-7--8--8-8-7-7------------------10-10-10--10-10-10-10-----|

Gt 1     Play 2 Times
 e-------------------------------------10---------------------------------|
 b-------12---12-12--12-12-----12-12-12---12------------------------------|
 g-9-9-9----9-------9------9-9--------------11-11-11-11-12-12-11-11-------|
 d------------------------------------------------------------------------|
 a------------------------------------------------------------------------|
 e------------------------------------------------------------------------|

 Gt 2
 e-----------------------------------------------------------------------|
 b-9-9-9-9--9------------------12-12-12-12--12---------------------------|
 g-9-9-9-9--9-8-8--8--9-9-8-8--12-12-12-12--12-11-11-11--11-11-11-11-----|
 d-9-9-9-9--9-9-9--10-10109-9--12-12-12-12--12-12-12-12--12-12-12-12-----|
 a-7-7-7-7--7-9-9--10-10109-9--10-10-10-10--10-12-12-12--12-12-12-12-----|
 e------------7-7--8--8-8-7-7------------------10-10-10--10-10-10-10-----|

  Gt1     Play 1 Time
 e----------------------------------------------------------------------|
 b----------------------------------------------------------------------|
 g----------------------------------------------------------------------|
 d----------------------------------------------------------------------|
 a----------------------------------------------------------------------|
 e----------------------------------------------------------------------|

  Gt 2
 e-----------------------------------------------------------------------|
 b-9-9-9-9--9------------------12-12-12-12--12---------------------------|
 g-9-9-9-9--9-8-8--8--9-9-8-8--12-12-12-12--12-11-11-11--11-11-11-11-----|
 d-9-9-9-9--9-9-9--10-10109-9--12-12-12-12--12-12-12-12--12-12-12-12-----|
 a-7-7-7-7--7-9-9--10-10109-9--10-10-10-10--10-12-12-12--12-12-12-12-----|
 e------------7-7--8--8-8-7-7------------------10-10-10--10-10-10-10-----|

Gt1     Play 3 Times
 e----------------------------------------------------------------------|
 b----------------------------------------------------------------------|
 g----------------------------------------------------------------------|
 d----------------------------------------------------------------------|
 a----------------------------------------------------------------------|
 e----------------------------------------------------------------------|

  Gt2
 e----------------------------------------------------------------------|
 b-9-9-9-9--9--9-9-9--9-9-9-9-12-12-12-12-------------------------------|
 d-9-9-9-9--9--9-9-9--9-9-9-9-12-12-12-12-11-11-11--11-11-11-11---------|
 g-9-9-9-9--9--9-9-9--9-9-9-9-12-12-12-12-12-12-12--12-12-12-12---------|
 a-7-7-7-7--7--7-7-7--7-7-7-7-10-10-10-10-12-12-12--12-12-12-12---------|
 e----------------------------------------10-10-10--10-10-10-10---------|

Gt1     Play 2 Times
 e----------------------------------------------------------------------|
 b----------------------------------------------------------------------|
 g----------------------------------------------------------------------|
 d----------------------------------------------------------------------|
 a----------------------------------------------------------------------|
 e----------------------------------------------------------------------|

  Gt 2
 e-----------------------------------------------------------------------|
 b-9-9-9-9--9------------------12-12-12-12--12---------------------------|
 g-9-9-9-9--9-8-8--8--9-9-8-8--12-12-12-12--12-11-11-11--11-11-11-11-----|
 d-9-9-9-9--9-9-9--10-10109-9--12-12-12-12--12-12-12-12--12-12-12-12-----|
 a-7-7-7-7--7-9-9--10-10109-9--10-10-10-10--10-12-12-12--12-12-12-12-----|
 e------------7-7--8--8-8-7-7------------------10-10-10--10-10-10-10-----|

Gt1 (2nd solo)
 e--------------------------------------------------------------------------|
 b----12-12-10-10-----------------10-10-------------------------------------|
 g-9-9-----------12-12-11-11-12-12-----12-12-11-11-12-12-11-11-9-9----------|
 d----------------------------------------------------------------12-12-9-9-|
 a--------------------------------------------------------------------------|
 e--------------------------------------------------------------------------|
Gt1
 e--------------------------------------------------------------------------|
 b----------------12-12-10-10-----------------10-10-----------------10-10---|
 g-12-12-11-11-9-9-----------12-12-11-11-12-12-----12-12-11-11-12-12-----12-|
 d--------------------------------------------------------------------------|
 a--------------------------------------------------------------------------|
 e--------------------------------------------------------------------------|
Gt1
 e-10-10-----10--10-12-----------------------------------------------------|
 b------12-12--12----------------------------------------------------------|
 g-------------------------------------------------------------------------|
 d-------------------------------------------------------------------------|
 a-------------------------------------------------------------------------|
 e-------------------------------------------------------------------------|


Gt 2            Played Twice while Gt1 plays 2nd solo
 e-----------------------------------------------------------------------|
 b-9-9-9-9--9------------------12-12-12-12--12---------------------------|
 g-9-9-9-9--9-8-8--8--9-9-8-8--12-12-12-12--12-11-11-11--11-11-11-11-----|
 d-9-9-9-9--9-9-9--10-10109-9--12-12-12-12--12-12-12-12--12-12-12-12-----|
 a-7-7-7-7--7-9-9--10-10109-9--10-10-10-10--10-12-12-12--12-12-12-12-----|
 e------------7-7--8--8-8-7-7------------------10-10-10--10-10-10-10-----|


Finished
Suggest correction
Give kudos to tab author, rate the tab!
1 2 3 4 5
comments
print report bad tab
guest
You may want to rate the tab now too:
select rating
Wanna post a correction for this tab? Suggest correction