Oops, an error
Loading. Please wait.

Martin Eden Bass Tab

235 views 1 this week
no commentswrite comment
1 2 3 4 5
please rate
add to favorites
launch autoscroll
font size
0
reset
guitar tuner
Tab Pro tools
  • play this tab
  • loop segment
  • change instrument
  • show fretboard
  • metronome
×
Best way to learn
"Martin Eden"
Autoscroll
slow
fast
+/-
esc
set tempo
stop
Contributor
rko
Verse 1
G|-------------------------------------------------------------------------------|
D|-------------------------------------------------------------------------------|
A|-5~--3~--1~--0-1-3---5~--3~--1~--0-1-0---5~--3~--1~--0-1-3---5~--3~--1~--------|
E|-------------------------------------------------------------------------5-3-1-|


Chorus 1
G|-------------------------------------------------------------------|
D|-------------------------------------------------------------------|
A|-5~--7~--1~--3~--0~--1~--3~--1~---5~--7~--8~--10~/13\12--10~-8-5~--|
E|-------------------------------------------------------------------|


Between chorus and verse 2
G|-----------------------------------|
D|-----------------------------------|
A|-3~--1~--0-1-0---5~--3~--1~--------|
E|-----------------------------5-3-1-|


Verse 2
G|------------------------------------------------------|
D|------------------------------------------------------|
A|-5~-------------5~--3~--1~--0-1-3---5~--3~--1~--------|
E|------------------------------------------------5-3-1-|


Chorus 2
G|-----------------------------------------------------------------------------------------------|
D|-----------------------------------------------------------------------------------------------|
A|5~--7~--1~--3~--0~--1~--3~--1~---5~--3~--0~--1~------0~--1~--3~--5~--7~--8~--10~/13\12--10~-8-5|
E|-------------------------------------------------3~--------------------------------------------|


Verse 3
G|-----------------------------------------12-10-9-7----------------------------------------|
D|------------------------------------------------------------------------------------------|
A|-3~--1~--0-1-3---5~--3~--1~--0-1-0--5~--------------5~--3~--1~-0-1-3---5~--3~--1--1-0-----|
E|--------------------------------------------------------------------------------------3-1-|

G|------------------------|
D|------------------------|
A|-5~--3~--1~--------5~---|
E|------------5-3-1-------|
comments
We did not receive enough feedback on this tab! Please rate:
print report bad tab
1 2 3 4 5
I want to post or [tab]
guest
You may want to rate the tab now too:
select rating
Please do not post tabs as comments. Select "correction" instead!