Oops, an error
Loading. Please wait.

Brown Noise Tab

91 views 1 this week
no commentswrite comment
1 2 3 4 5
3 more votes to show rating
add to favorites
launch autoscroll
font size
0
reset
how to read this tab
guitar tuner
Autoscroll
slow
fast
+/-
esc
set tempo
stop
Help us to improve Ultimate-Guitar.com Take our survey!
×
Author
Song: Brown Noise
Artist: The Tylar And Jack Experience
Album: Brown Noise EP

Tabbed by Tylar, drummer from ttaje.
Email me @ listaa@hotmail.co.uk

Tuning: E A D G B E


Verse 1;

e|-----------------------------------------------------------------------------|
B|-----------------------------------------------------------------------------|
G|-----------------------------------------------------------------------------|
D|-------------------2-2-2-2-2-2-2-2-2-------------------2-2-2-2-2-2-2-2-2-----|
A|-6-6-6-6-6-6-6-6-6-2-2-2-2-2-2-2-2-2-6-6-6-6-6-6-6-6-6-2-2-2-2-2-2-2-2-2-----|
E|-4-4-4-4-4-4-4-4-4-------------------4-4-4-4-4-4-4-4-4-----------------------|

Chours;


e|-----------------------------------------------------------------------------|
B|-----------------------------------------------------------------------------|
G|-----------------------------------------------------------------------------|
D|-2-2-2--2222222--2-2-2--2222222--2-2-2--2222222--2--2--2-2-2-----------------|
A|-2-2-2--2222222--2-2-2--2222222--2-2-2--2222222--2--2--2-2-2-----------------|
E|-----------------------------------------------------------------------------|

Verse 2;


e|-----------------------------------------------------------------------------|
B|-----------------------------------------------------------------------------|
G|-----------------------------------------------------------------------------|
D|-------------------2-2-2-2-2-2-2-2-2-------------------2-2-2-2-2-2-2-2-2-----|
A|-6-6-6-6-6-6-6-6-6-2-2-2-2-2-2-2-2-2-6-6-6-6-6-6-6-6-6-2-2-2-2-2-2-2-2-2-----|
E|-4-4-4-4-4-4-4-4-4-------------------4-4-4-4-4-4-4-4-4-----------------------|

Chours;



e|-----------------------------------------------------------------------------|
B|-----------------------------------------------------------------------------|
G|-----------------------------------------------------------------------------|
D|-2-2-2--2222222--2-2-2--2222222--2-2-2--2222222--2--2--2-2-2-----------------|
A|-2-2-2--2222222--2-2-2--2222222--2-2-2--2222222--2--2--2-2-2-----------------|
E|-----------------------------------------------------------------------------|

Verse 3;


e|-----------------------------------------------------------------------------|
B|-----------------------------------------------------------------------------|
G|-----------------------------------------------------------------------------|
D|-------------------2-2-2-2-2-2-2-2-2-------------------2-2-2-2-2-2-2-2-2-----|
A|-6-6-6-6-6-6-6-6-6-2-2-2-2-2-2-2-2-2-6-6-6-6-6-6-6-6-6-2-2-2-2-2-2-2-2-2-----|
E|-4-4-4-4-4-4-4-4-4-------------------4-4-4-4-4-4-4-4-4-----------------------|

Chours;



e|-----------------------------------------------------------------------------|
B|-----------------------------------------------------------------------------|
G|-----------------------------------------------------------------------------|
D|-2-2-2--2222222--2-2-2--2222222--2-2-2--2222222--2--2--2-2-2-----------------|
A|-2-2-2--2222222--2-2-2--2222222--2-2-2--2222222--2--2--2-2-2-----------------|
E|-----------------------------------------------------------------------------|

Verse 1 Repeated;

e|-----------------------------------------------------------------------------|
B|-----------------------------------------------------------------------------|
G|-----------------------------------------------------------------------------|
D|-------------------2-2-2-2-2-2-2-2-2-------------------2-2-2-2-2-2-2-2-2-----|
A|-6-6-6-6-6-6-6-6-6-2-2-2-2-2-2-2-2-2-6-6-6-6-6-6-6-6-6-2-2-2-2-2-2-2-2-2-----|
E|-4-4-4-4-4-4-4-4-4-------------------4-4-4-4-4-4-4-4-4-----------------------|

Chours/Ending;




e|-----------------------------------------------------------------------------|
B|-----------------------------------------------------------------------------|
G|-----------------------------------------------------------------------------|
D|-2-2-2--2222222--2-2-2--2222222--2-2-2--2222222--2--2--2-2-2-----------------|
A|-2-2-2--2222222--2-2-2--2222222--2-2-2--2222222--2--2--2-2-2-----------------|
E|-----------------------------------------------------------------------------|

Enjoy ;]

| /  slide up
| \  slide down
| h  hammer-on
| p  pull-off
| ~  vibrato
| +  harmonic
| x  Mute note
===============================================================================
Suggest correction
Give kudos to tab author, rate the tab!
1 2 3 4 5
comments
print report bad tab
guest
You may want to rate the tab now too:
select rating
Wanna post a correction for this tab? Suggest correction