Oops, an error
Loading. Please wait.

Morning Sun Tab

version 1
version 1

Intro

Whole song

13 views 6 this week
no commentswrite comment
1 2 3 4 5
3 more votes to show rating
add to favorites
launch autoscroll
font size
0
reset
how to read this tab
guitar tuner
Autoscroll
slow
fast
+/-
esc
set tempo
stop
Help us to improve Ultimate-Guitar.com Take our survey!
×
Author
Difficulty
novice
[Intro/Chorus]
e|---------------------------------------------------------|
b|---------------------------------------5b-------5b-------|
g|--------------6---6---6--6---4--4--4------4--4-----4-----|
d|-4----4---4-------------------------------------------4--|
a|---------------------------------------------------------|
E|---------------------------------------------------------|                                 
                                  
e|---------------------------------------------------------|
b|------------------------------5b--5b--5b--5b-------------|
g|--------------6---6---6----4-----------------------------|
d|-4----4---4----------------------------------------------|
a|---------------------------------------------------------|
E|---------------------------------------------------------|

 
************************************

| b  Bend

************************************
Suggest correction
Give kudos to tab author, rate the tab!
1 2 3 4 5
comments
print report bad tab
guest
You may want to rate the tab now too:
select rating
Wanna post a correction for this tab? Suggest correction