Oops, an error
Loading. Please wait.
We have an official Here Comes The Summer tab made by UG professional guitarists. Check out the tab »
×
2,095 views 1 this week
2 commentsread comments
1 2 3 4 5
x 3
add to favorites
×
Save as Personal and add changes to this tab that will be seen only by you. Learn more ›
×
You can save this tab as Personal to edit and correct it or add notes. All changes will be seen only by you. Learn more »
launch autoscroll
font size
0
reset
how to read this tab
guitar tuner
edit
Autoscroll
slow
fast
+/-
esc
set tempo
stop
Author
-----------------------------------------------------------------------------   
                    Here comes the summer-The Undertones
-----------------------------------------------------------------------------
Tabbed by: sugarpunk33
Album: The Undertones,1979
Instrument: Electric Guitar

Tuning: Standard (E A D G B E)

GUITAR I(rhythm guitar) & GUITAR II (lead guitar)

intro
     A  F#    D    E
E|---------------------|
B|---------------------|
G|-----------7-7-9-9-9-|
D|--7-7-4-4--7-7-9-9-9-|
A|--7-7-4-4--5-5-7-7-7-|
E|--5-5-2-2------------|

verse
   A               F#              A                E
E|-----------------------------------------------------------------|
B|-----------------------------------------------------------------|
G|-----------------------------------------------------------------|
D|-7-7-7-7-7-7-7-7-4-4-4-4-4-4-4-4-7-7-7-7-7-7-7-7-2-2-2-2-2-2-2-2-|
A|-7-7-7-7-7-7-7-7-4-4-4-4-4-4-4-4-7-7-7-7-7-7-7-7-2-2-2-2-2-2-2-2-|
E|-5-5-5-5-5-5-5-5-2-2-2-2-2-2-2-2-5-5-5-5-5-5-5-5-0-0-0-0-0-0-0-0-|
 
  A                F#              D              E
E|----------------------------------------------------------------|
B|----------------------------------------------------------------|
G|--------------------------------7-7-7-7-7-7-7-7-9-9-9-9-9-9-9-9-|
D|-7-7-7-7-7-7-7-7-4-4-4-4-4-4-4-47-7-7-7-7-7-7-7-9-9-9-9-9-9-9-9-|
A|-7-7-7-7-7-7-7-7-4-4-4-4-4-4-4-45-5-5-5-5-5-5-5-7-7-7-7-7-7-7-7-|
E|-5-5-5-5-5-5-5-5-2-2-2-2-2-2-2-2--------------------------------|

chorus
   A        F#        E
E|--------------------------------|
B|--------------------------------|
G|--------------------------------|
D|-7-7-7-7-4-4-4--2-2-2-2-2-2-2-2-|
A|-7-7-7-7-4-4-4--2-2-2-2-2-2-2-2-|
E|-5-5-5-5-2-2-2--0-0-0-0-0-0-0-0-|


solo
GUITAR I (rhythm guitar)

backing
    C#             A               C#              A
E|------------------------------------------------------------------|
B|------------------------------------------------------------------|
G|-6-6-6-6-6-6-6-6-2-2-2-2-2-2-2-2-6-6-6-6-6-6-6-6-2-2-2-2-2-2-2-2--|
D|-6-6-6-6-6-6-6-6-2-2-2-2-2-2-2-2-6-6-6-6-6-6-6-6-2-2-2-2-2-2-2-2--|
A|-4-4-4-4-4-4-4-4-0-0-0-0-0-0-0-0-4-4-4-4-4-4-4-4-0-0-0-0-0-0-0-0--|
E|------------------------------------------------------------------|
     C#            B               A               B
E|------------------------------------------------------------------|
B|------------------------------------------------------------------|
G|-6-6-6-6-6-6-6-6-4-4-4-4-4-4-4-4-2-2-2-2-2-2-2-2-4-4-4-4-4-4-4-4--|
D|-6-6-6-6-6-6-6-6-4-4-4-4-4-4-4-4-2-2-2-2-2-2-2-2-4-4-4-4-4-4-4-4--|
A|-4-4-4-4-4-4-4-4-2-2-2-2-2-2-2-2-0-0-0-0-0-0-0-0-2-2-2-2-2-2-2-2--|
E|------------------------------------------------------------------|


GUITAR II (lead guitar)

E|------------------------------------------------------------------|
B|------------------------------------------------------------------|
G|-10-10-13p12h13--6-6-9b-6--10-10-13p12h13--6-6-7b--10-11-13p12h13-|
D|-11-11-----------7-7-------11-11-----------7-7-----10-11----------|
A|------------------------------------------------------------------|
E|------------------------------------------------------------------|

E|------------------------------------------------------------------|
B|------------------------------------------------------------------|
G|-8-8-11b-8--6-6-9p6h9p6--8-8-11-8---------------------------------|
D|-9-9--------7-7----------9-9--------------------------------------|
A|------------------------------------------------------------------|
E|------------------------------------------------------------------|



At the chorus after the solo, goes up to E, then play:

    E      C#      B
E|--------------------------------|
B|--------------------------------|
G|-9-9-9-9-6-6-6------------------|
D|-9-9-9-9-6-6-6--9-9-9-9-9-9-9-9-|
A|-7-7-7-7-4-4-4--9-9-9-9-9-9-9-9-|
E|----------------7-7-7-7-7-7-7-7-|



order:
intro   X 2
verse   X 1
chorus  X 3
verse   X 1
chorus  X 3
solo    X 1   
chorus(in E)  X 4
verse   X 1
chorus  X keep playing until fades out
Suggest correction
Creating personal tab
Creating personal tab
You can edit any tab online and save it as your Personal.

You can edit, replace or remove any tab part or add personal notes – all changes will be seen only by you.

Personal tabs can be accessed anytime from any device, even offline.
Learn more »
Give kudos to tab author, rate the tab!
1 2 3 4 5
comments
print report bad tab
2 comments total.
+1 reply
Roppies 3,210 Jun 22, 2014 06:16 AM

Good tab...just missing the chord change on the chorus after the solo...goes up to E (7th fret), C#, B, x4 then back to original verse riff

0 reply
sugarpunk33 259 Jun 22, 2014 07:23 AM

I have changed that. Thanks for the comment!

guest
You may want to rate the tab now too:
select rating
Wanna post a correction for this tab? Suggest correction