Oops, an error
Loading. Please wait.

Jimmy Jimmy tab

8,234 views 9 this week
1 commentread comment
1 2 3 4 5
x 10
add to favorites
×
Save as Personal and add changes to this tab that will be seen only by you. Learn more ›
×
You can save this tab as Personal to edit and correct it or add notes. All changes will be seen only by you. Learn more »
launch autoscroll
font size
0
reset
how to read this tab
guitar tuner
edit
Autoscroll
slow
fast
+/-
esc
set tempo
stop
Author
Difficulty
--------------------------------------------------------------------------
                             Jimmy Jimmy - The Undertones
--------------------------------------------------------------------------
Tabbed by: Johnny Sardine

Tuning: std

intro - open A chord riff

e|----------------------------------------------|
B|---2------------------------------------------|
G|----2---0h2-----------------------------------|x 4
D|------2---------------------------------------|
A|-0--------------------------------------------|
E|----------------------------------------------|

        
  D              E D     A              D  

e|----------------------------------------------|
B|----------------------------------------------|
G|---------------------------2------------------| x 3
D|-----------------------------4-2-4-2-0--------|
A|----------------------------------------------|
E|----------------------------------------------|



  G                 E       G             E      
e|----------------------------------------------|
B|----------------------------------------------|
G|----------------------------------------------|
D|----------------------------------------------|
A|----------------------------------------------|
E|----------------------------------------------|

Little mummy's boy
A               E
He wasn't very old
    D           E
Though he was very small
  A                 E
He did what he was told
    D               E

Jimmy Jimmy
D      E D   A riff
Jimmy Jimmy - Oooh
D      E D   A riff
Jimmy Jimmy
D      E D   A riff
Poor little Jimmy wouldn't let go 
G                  E               

G                  E

He'd stay awake at night
A                  E
Lying in his bed
 D            E
No one ever listened
A            E 
To a single word he said
     D              E

Jimmy Jimmy ...


A E D E

A E D

Silly boy
E     A   E  D
Silly boy
E     A   E  D
Silly boy
E     A   E  D
Such a silly boy
E            A

 
Jimmy Jimmy ...


Now little Jimmy's gone
A                  E 
He disappeared one day
   D               E 
But no one saw the ambulance
    A              E 
That took little Jim away
     D                  E
 

Jimmy Jimmy

rpt...

            
            
Suggest correction
Creating personal tab
Creating personal tab
You can edit any tab online and save it as your Personal.

You can edit, replace or remove any tab part or add personal notes – all changes will be seen only by you.

Personal tabs can be accessed anytime from any device, even offline.
Learn more »
comments
print report bad tab
1 comment total.
+1 reply
wireman1967 10 Sep 11, 2016 03:07 PM

The riff that goes,
D E D A D
e|----------------------------------------------|
B|----------------------------------------------|
G|---------------------------2------------------| x 3
D|-----------------------------4-2-4-2-0--------|
A|----------------------------------------------|
E|----------------------------------------------|
Doesn't sound right to me...

I think its more like this,
D E
ddd dd
e|--x---------x-----------------------------------|
B|--x---------x-----------------------------------|
G|--7---------9----------------2------------------| x 3
D|--7---------9--------------0---4-2-4-2----------|
A|--5---------7-----------------------------------|
E|--x---------x-----------------------------------|

guest
You may want to rate the tab now too:
select rating
Wanna post a correction for this tab? Suggest correction