Oops, an error
Loading. Please wait.
We have an official Teenage Kicks tab made by UG professional guitarists. Check out the tab »
×

Teenage Kicks bass

version 4
version 4

Whole song

  • My tab has the correct turn round after the verse that leads into the chorus.

Interactive

106 views 1 this week
no commentswrite comment
1 2 3 4 5
3 more votes to show rating
add to favorites
×
Save as Personal and add changes to this tab that will be seen only by you. Learn more ›
×
You can save this tab as Personal to edit and correct it or add notes. All changes will be seen only by you. Learn more »
launch autoscroll
font size
0
reset
guitar tuner
backing track
0:00
0:00
edit
Autoscroll
slow
fast
+/-
esc
set tempo
stop
Author
About this tab version
My tab has the correct turn round after the verse that leads into the chorus. Was this info helpful? Yes No
Teenage Kicks
Debut single by The Undertones in 1978 and although it only reached
Number 31 UK charts, this song is a punk/Rock classic. Became an all
Time favourite of Radio 1 DJ John Peel. Bass performance Michael Bradley
Tab by bass50611.  This what I played with my band so many, many times
Unlike other tabs on UG my tab includes the correct turn around after 
Verse and into Chorus: Comments at bass254@btinternet.com 

Intro:  (Drum Start)
                                     (Play This x2)
G|------------------------------------------------|
D|------------------------------------------------|
A|-5--5--5--5--5--5--5--4--2--2--2--2--2--2--2--4-|
E|------------------------------------------------|

Verse 1:
G|------------------------------------------------|
D|------------------------------------------------|
A|-5--5--5--5--5--5--5--4--2--2--2--2--2--2--2--4-|
E|------------------------------------------------|

G|--------------------------------------------------|
D|--------------------------------------------------|
A|-5--5--5--5--5--5--5--4--2--2--2--2--2--2--2---0--|
E|----------------------------------------------3-2-|

Chorus:
G|------------------------------------------------|
D|------------------------------------------------|
A|------------------------------------------------|
E|-3--3--3--3--3--3--3--4--5--5--5--5--5--5--5--5-|

Verse 2:
G|------------------------------------------------|
D|------------------------------------------------|
A|-5--5--5--5--5--5--5--4--2--2--2--2--2--2--2--4-|
E|------------------------------------------------|

G|--------------------------------------------------|
D|--------------------------------------------------|
A|-5--5--5--5--5--5--5--4--2--2--2--2--2--2--2---0--|
E|----------------------------------------------3-2-|

Chorus:
G|------------------------------------------------|
D|------------------------------------------------|
A|------------------------------------------------|
E|-3--3--3--3--3--3--3--4--5--5--5--5--5--5--5--5-|

Solo 1:                              (Play This x2)
G|------------------------------------------------|
D|------------------------------------------------|
A|-5--5--5--5--5--5--5--4--2--2--2--2--2--2--2--4-|
E|------------------------------------------------|

Verse 3:
G|------------------------------------------------|
D|------------------------------------------------|
A|-5--5--5--5--5--5--5--4--2--2--2--2--2--2--2--4-|
E|------------------------------------------------|

G|--------------------------------------------------|
D|--------------------------------------------------|
A|-5--5--5--5--5--5--5--4--2--2--2--2--2--2--2---0--|
E|----------------------------------------------3-2-|

Chorus:
G|------------------------------------------------|
D|------------------------------------------------|
A|------------------------------------------------|
E|-3--3--3--3--3--3--3--4--5--5--5--5--5--5--5--5-|

Verse 4:
G|------------------------------------------------|
D|------------------------------------------------|
A|-5--5--5--5--5--5--5--4--2--2--2--2--2--2--2--4-|
E|------------------------------------------------|

G|--------------------------------------------------|
D|--------------------------------------------------|
A|-5--5--5--5--5--5--5--4--2--2--2--2--2--2--2---0--|
E|----------------------------------------------3-2-|

Chorus:
G|------------------------------------------------|
D|------------------------------------------------|
A|------------------------------------------------|
E|-3--3--3--3--3--3--3--4--5--5--5--5--5--5--5--5-|

Solo 2:
G|------------------------------------------------|
D|------------------------------------------------|
A|-5--5--5--5--5--5--5--4--2--2--2--2--2--2--2--4-|
E|------------------------------------------------|

G|--------------------------------------------------|
D|--------------------------------------------------|
A|-5--5--5--5--5--5--5--4--2--2--2--2--2--2--2---0--|
E|----------------------------------------------3-2-|

Chorus:
G|------------------------------------------------
D|------------------------------------------------
A|------------------------------------------------
E|-3--3--3--3--3--3--3--4--5--5--5--5--5--5--5--5-

Outro:             (End)
G|-------------------|
D|-------------------|
A|-5-5-------------5-|
E|-----3-3---3-4-5---|



Are teenage dreams so hard to beat
Everytime she walks down the street
Another girl in the neighbourhood
Wish she was mine, she looks so good

I wanna hold her wanna hold her tight
Get teenage kicks right through the night

I'm gonna call her on the telephone
Have her over cos I'm all alone
I need excitement oh I need it bad
And it's the best, I've ever had

I wanna hold her wanna hold her tight
Get teenage kicks right through the night

I wanna hold her wanna hold her tight
Get teenage kicks right through the night

            
            
Suggest correction
Creating personal tab
Creating personal tab
You can edit any tab online and save it as your Personal.

You can edit, replace or remove any tab part or add personal notes – all changes will be seen only by you.

Personal tabs can be accessed anytime from any device, even offline.
Learn more »
Give kudos to tab author, rate the tab!
1 2 3 4 5
comments
print report bad tab
guest
You may want to rate the tab now too:
select rating
Wanna post a correction for this tab? Suggest correction