Oops, an error
Loading. Please wait.

True Confessions Bass Tab

13 views 6 this week
no commentswrite comment
1 2 3 4 5
3 more votes to show rating
add to favorites
launch autoscroll
font size
0
reset
guitar tuner
Autoscroll
slow
fast
+/-
esc
set tempo
stop
Help us to improve Ultimate-Guitar.com Take our survey!
×
Author
Difficulty
novice
[Intro]

G|-----5-5-5-5-5-5-|-----5-5-5-5-5-5-|-----5-5-5-5-5-5-|-----5-5-5-5-5-5-|
D|-3-5-------------|-3-5-------------|-3-5-------------|-3-5-------------|
A|-----------------|-----------------|-----------------|-----------------|
E|-----------------|-----------------|-----------------|-----------------|


G|-----5-5-5-5-5---|---0-5-5-5-5-5---|---0-5-5-5-5-5---|---0-5-5-5-5-5---|
D|-3-5-----------2-|-3-------------2-|-3-------------2-|-3-------------2-|
A|-----------------|-----------------|-----------------|-----------------|
E|-----------------|-----------------|-----------------|-----------------|


[Verse 1]

G|---0-5-5-5-5-5---|---0-5-5-5-5-5---|---0-5-5-5-5-5---|---0-5-5-5-5-5-5-4-2-|
D|-3-------------2-|-3-------------2-|-3-------------2-|-3-------------------|
A|-----------------|-----------------|-----------------|---------------------|
E|-----------------|-----------------|-----------------|---------------------|


[Chorus]

G|-----------------|-5-5-5-5-5-5-4-2-|-----------------|-5-5-5-5-5-----0-|
D|-5-5-5-5-5-5-5-5-|-----------------|-5-5-5-5-5-5-5-5-|-----------2-3---|
A|-----------------|-----------------|-----------------|-----------------|
E|-----------------|-----------------|-----------------|-----------------|


[Verse 2]

G|-5-5-5-5-5-----0-|-5-5-5-5-5-----0-|-5-5-5-5-5-----0-|-5-5-5-5-5-5-4-2-|
D|-----------2-3---|-----------2-3---|-----------2-3---|-----------------|
A|-----------------|-----------------|-----------------|-----------------|
E|-----------------|-----------------|-----------------|-----------------|


[Chorus]

G|-----------------|-5-5-5-5-5-5-4-2-|-----------------|-5-5-5-5-5-5-5-5-|
D|-5-5-5-5-5-5-5-5-|-----------------|-5-5-5-5-5-5-5-5-|-----------------|
A|-----------------|-----------------|-----------------|-----------------|
E|-----------------|-----------------|-----------------|-----------------|


[Bridge]

G|-3-3-3-3-3-3-3-3-|-5-5-5-5-5-5-5-5-|-3-3-3-3-3-3-3-3-|-----------------| (x2)
D|-----------------|-----------------|-----------------|-5-5-5-5-5-5-5-5-|
A|-----------------|-----------------|-----------------|-----------------|
E|-----------------|-----------------|-----------------|-----------------|


G|-----------------|
D|-5-5-5-5-5-5-3-5-|
A|-----------------|
E|-----------------|


[Verse 3]

G|-5-5-5-5-5-----0-|-5-5-5-5-5-----0-|-5-5-5-5-5-----0-|-5-5-5-5-5-5-4-2-|
D|-----------2-3---|-----------2-3---|-----------2-3---|-----------------|
A|-----------------|-----------------|-----------------|-----------------|
E|-----------------|-----------------|-----------------|-----------------|


[Chorus]

G|-----------------|-5-5-5-5-5-5-4-2-|-----------------|-5-5-5-5-5-----0-|
D|-5-5-5-5-5-5-5-5-|-----------------|-5-5-5-5-5-5-5-5-|-----------2-3---|
A|-----------------|-----------------|-----------------|-----------------|
E|-----------------|-----------------|-----------------|-----------------|


[Verse 4]

G|-5-5-5-5-5-----0-|-5-5-5-5-5-----0-|-5-5-5-5-5-----0-|-5-5-5-5-5-5-4-2-|
D|-----------2-3---|-----------2-3---|-----------2-3---|-----------------|
A|-----------------|-----------------|-----------------|-----------------|
E|-----------------|-----------------|-----------------|-----------------|


[Chorus]

G|-----------------|-5-5-5-5-5-5-4-2-|-----------------|-5-5-5-5-5-5-5-5-|
D|-5-5-5-5-5-5-5-5-|-----------------|-5-5-5-5-5-5-5-5-|-----------------|
A|-----------------|-----------------|-----------------|-----------------|
E|-----------------|-----------------|-----------------|-----------------|


[Outro]

G|-3-3-3-3-3-3-3-3-|-5-5-5-5-5-5-5-5-|-3-3-3-3-3-3-3-3-|-----------------| (x2)
D|-----------------|-----------------|-----------------|-5-5-5-5-5-5-5-5-|
A|-----------------|-----------------|-----------------|-----------------|
E|-----------------|-----------------|-----------------|-----------------|


G|-----------------5--|
D|-5-5-5-5-5-5-3-5----|
A|--------------------|
E|--------------------|



*******************************

in regular sequence!

*******************************
Suggest correction
Give kudos to tab author, rate the tab!
1 2 3 4 5
comments
print report bad tab
guest
You may want to rate the tab now too:
select rating
Wanna post a correction for this tab? Suggest correction