Oops, an error
Loading. Please wait.

Teletransport Please Bass Tab

85 views 1 this week
no commentswrite comment
1 2 3 4 5
please rate
add to favorites
launch autoscroll
font size
0
reset
guitar tuner
Autoscroll
slow
fast
+/-
esc
set tempo
stop
Help us to improve Ultimate-Guitar.com Take our survey!
×
Author
Difficulty
novice
Intro/Verse
G-----------------------|
D-----------------------|
A--------------5---7-7--|
E-2-2-2--5-5-5----------|

Chorus
G--------------|
D--------------|
A---9-7-5----5-|
E--------5-5---|

Bridge
G--------------------------------|
D--------------------------------|
A------------5-5-5-5-5-5---------|
E-2-2-2-5-5-5------------7-7-5-5-|

It's an easy but powerful song.
The structure is below:
Intro
Verse
Chorus
Verse
Chorus x2
Bridge
Chorus

The link of the band is:
http://www.myspace.com/theunfinishedsympathy

Cheers!
Suggest correction
Give kudos to tab author, rate the tab!
1 2 3 4 5
comments
print report bad tab
guest
You may want to rate the tab now too:
select rating
Wanna post a correction for this tab? Suggest correction