Oops, an error
Loading. Please wait.

Last Day Bass Tab

255 views 1 this week
no commentswrite comment
1 2 3 4 5
3 more votes to show rating
add to favorites
launch autoscroll
font size
0
reset
guitar tuner
Autoscroll
slow
fast
+/-
esc
set tempo
stop
Help us to improve Ultimate-Guitar.com Take our survey!
×
Author
Difficulty
intermediate
Tabbed by Graham King / Fender1012
Normal Tunning - e/a/d/g

 For This you need to play a bit fast then tabbed!

C Major:
G|--------0-2-3-5-|
D|--0-2-3---------|
A|3---------------|
E|----------------|

E Major:
G|-----------------|
D|-------------1-2-|
A|-------0-2-4-----|
E|-0-2-4-----------|

F Major:
G|----------------|
D|----------0-2-3-|
A|----0-1-3-------|
E|1-3-------------|

C Minor:
G|--------0-1-3-5-|
D|--0-1-3---------|
A|3---------------|
E|----------------|

E Minor:
G|----------------|
D|------------0-2-|
A|------0-2-3-----|
E|0-2-3-----------|

F Minor:
G|----------------|
D|------------1-3-|
A|------1-3-4-----|
E|1-3-4-----------|

G|----------------------------|
D|-------------2-----2-2------|
A|---------3P2---3P2----------|
E|-0-0-2-2---------------X-3-0|
 S S S S P P T P P S P P

(this is in a minor)
G|-----------------------------------------------|
D|----------------------------2------------------|
A|--0---2---3---2---0---2---3-----0---2---3p2p0--|
E|0---0---0---0---0---0---0-----0---0---0-------0|
 S P S P S P S P S P S P S P P S P S P S P S
Suggest correction
Give kudos to tab author, rate the tab!
1 2 3 4 5
comments
print report bad tab
guest
You may want to rate the tab now too:
select rating
Wanna post a correction for this tab? Suggest correction