Oops, an error
Loading. Please wait.

I Was Born A Unicorn Tab

version 5
version 5

Whole song

Interactive

642 views 6 this week
no commentswrite comment
1 2 3 4 5
please rate
add to favorites
launch autoscroll
font size
0
reset
how to read this tab
guitar tuner
Tab Pro tools
  • play this tab
  • loop segment
  • change instrument
  • show fretboard
  • metronome
×
Best way to learn
"I Was Born A Unicorn"
Autoscroll
slow
fast
+/-
esc
set tempo
stop
Contributor
The Unicorns
I was born (a unicorn)
Tabbed by brandonlovatt

Intro
|-----11----------11----------11------11--13--11----------11----------11-----|
|-------13----------13----------13--------------------------13----------13---|
|--13-----13---13-----13---12-----12---------------12-13------13---13-----13-|
|----------------------------------------------------------------------------|
|----------------------------------------------------------------------------|
|----------------------------------------------------------------------------|

-----11------11--13--11------|
-------13--------------------|
--12-----12------------------|
-----------------------------|
-----------------------------|
-----------------------------|


|-------11----------11----------11------11--13-13--11--------11-----|
|---------13----------13----------13---------------------------13---|
|-12-13-----13---13-----13---12-----12-------------------13------13-|
|-------------------------------------------------------------------|
|-------------------------------------------------------------------|
|-------------------------------------------------------------------|

-----11----------11------11--13--15---|
-------13----------13-----------------|
--13-----13---12-----12---------------|
--------------------------------------|
--------------------------------------|
--------------------------------------|

|-------------------------------------------------------------------------------------|
|-------5-------5-------5----5-7-5----------5-------5-------5-----7-7-7-7-7--5--------|
|--------6-------6-------6-------------------6-------6-------6----6-6-6-6-6--6--------|
|--6/7----7---7---7---6---6---------6--6/7----7---7---7---6---6---6-6-6-6-6--6--------|
|-------------------------------------------------------------------------------------|
|-------------------------------------------------------------------------------------|

|-------------------------------------------------------------------------------------|
|-------5-------5-------5----5-7-5----------5-------5-------5-----5--7--9----------0--|
|--------6-------6-------6-------------------6-------6-------6----6--6--9-------------|
|--6/7----7---7---7---6---6---------6--6/7----7---7---7---6---6---6--6--9-------------|
|-------------------------------------------------------------------------------------|
|-------------------------------------------------------------------------------------|

Verse
I was born...
|------------------------------------5----|
|-------5---------7-------5--------5------|
|---6-6--6--6h7-7--7--6-6--6---4-4--------| Repeat until end of verses.
|-----------------------------------------|
|-----------------------------------------|
|-----------------------------------------|

Bridge
are dead...
|---0-------------------------------------------------------------|
|---2----1--2----1--2----1--2----1--2----1--2----1--2-------2-----|
|---2----1--2----1--2----1--2----1--2----1--2----1--2-------2-----|
|---2----1--2----1--2----1--2----1--2----1--2----1--2-------2-----|
|---0----0--0----0--0----0--0----0--0----0--0----0--0-------0-----|
|-----------------------------------------------------------------|

Chorus
|----------------------------------|
|---2--2----------7-7-7-7-7--------|
|---2--2----------7-7-7-7-7--------|  Repeat until end of chorus
|---2--2----------x-x-x-x-x--------|  then go back to verse.
|---0--0--2-3-5-7-7-7-7-7-7--------|
|----------------------------------|
comments
We did not receive enough feedback on this tab! Please rate:
print report bad tab
1 2 3 4 5
I want to post or [tab]
guest
You may want to rate the tab now too:
select rating
Please do not post tabs as comments. Select "correction" instead!