Oops, an error
Loading. Please wait.

Tuff Ghost Tab

version 1
version 1

Intro

Whole song

1,683 views 1 this week
3 commentsread comments
1 2 3 4 5
please rate
add to favorites
launch autoscroll
font size
0
reset
how to read this tab
guitar tuner
Tab Pro tools
  • play this tab
  • loop segment
  • change instrument
  • show fretboard
  • metronome
×
Best way to learn
"Tuff Ghost"
Autoscroll
slow
fast
+/-
esc
set tempo
stop
Contributor
Difficulty
novice
Song: Tuff Ghost
Band: The Unicorns

happy tabbing!

1-------------------------------|
2-------------------------------|
3-------------------------------|
4-------------------------------|
5--5--3--0-----5--3--2--3--2/5--|
6-----------4-------------------|

(This next part is with the synthesizer behind it)

1----------------------------------------------------------------|
2----------------------------------------------------------------|
3----------------------------------------------------------------|
4----------------------------------------------------------------|
5--7-5-3-2-3-2-0-------------------------------------------------|
6----------------4-5-4-5--0-0-0-1-1-1----------------------------|

1----------------------------------------------------------------|
2----------------------------------------------------------------|
3----------------------------------------------------------------|
4----------------------------------------------------------------|
5--7-5-3-2-3-2-0-------------------------------------------------|
6----------------4-5-4-5--7-7-7-8-8-8----------------------------|
comments
We did not receive enough feedback on this tab! Please rate:
print report bad tab
1 2 3 4 5
3 comments total.
0 reply
FinderofNemo wrote on April 8 2007, 04:37 pm

Isn't that bass?

0 reply
Atomic48 wrote on November 27 2008, 07:31 am

And I'm pretty sure synth goes:

e|----------11---------------------------11-|
B|-10-12-13----13-12-10---10-12-10-13-10----|
G|------------------------------------------|
D|------------------------------------------|
A|------------------------------------------|
E|------------------------------------------| x2

0 reply
TheFutileEngine wrote on August 3 2011, 10:17 pm

Hey Atomic48, i think the second part of that starts on 9. (9-12-9-13-9-11)

I want to post or [tab]
guest
You may want to rate the tab now too:
select rating
Please do not post tabs as comments. Select "correction" instead!