Oops, an error
Loading. Please wait.

Across The Nation Tab

version 2
version 2

Whole song

Interactive

3,729 views 1 this week
no commentswrite comment
1 2 3 4 5
please rate
add to favorites
launch autoscroll
font size
0
reset
how to read this tab
guitar tuner
Tab Pro tools
  • play this tab
  • loop segment
  • change instrument
  • show fretboard
  • metronome
×
Best way to learn
"Across The Nation"
Autoscroll
slow
fast
+/-
esc
set tempo
stop
Contributor
Difficulty
novice
############################################################################################
#                    "ACROSS THE NATION" THE UNION UNDERGROUND (2002)                      #
############################################################################################
Title: Across The Nation
Artist: The Union Underground
Album: WWF Forceable Entry
Label: Portrait Records
Transcribed By: [LS]Lgndkllr777

################
#    NOTES     #
################
Please Maximize Your Screen To View The TABs Correctly. If TABs show up jumbled when
maximized,change your screen resolution to 1024 x 768.

################
#    TUNING    #
################
Guitar 1 (RYTHM)
Effect: Distortion with Expression Pedal
6E
5A
4D
3G
2B
1E

#################
#     INTRO     #
#################
E|---------------------------------------|---------------------------------------|
B|---------------------------------------|---------------------------------------|
G|---------------------------------------|---------------------------------------|
D|---------------------------------------|---------------------------------------|
A|---------------------------------------|---------------------------------------|
E|---------------------------------------|---------------------------------------|
    Now  Get  The  Guns  The  Drugs  For  My  Generation  I'll  Take  The  Fall

E|---------------------------------------|---------------------------------------|
B|---------------------------------------|---------------------------------------|
G|---------------------------------------|---------------------------------------|
D|---------------------------------------|-------6-6-------6-6---------6-6-------|
A|---------------------------------------|-------4-4-------4-4---------4-4-------|
E|---------------------------------------|---------------------------------------|
    The Saints Across The Nation Yeah It's   The Sex   The Guns   The Fakes

E|---------------------------------------|---------------------------------------|
B|---------------------------------------|---------------------------------------|
G|---------------------------------------|---------------------------------------|
D|---------------------------------------|-------6-6-------6-6---------6-6-------|
A|---------------------------------------|-------4-4-------4-4---------4-4-------|
E|---------------------------------------|---------------------------------------|
    The Frauds They're Messing With Me        Come On    Come On    Come On

################
#  PRE CHORUS  #
################
E|-------------------|
B|-------------------|
G|-------------------|
D|-------------------|
A|-------------------|
E|-------------------|
     Let's Get It On

################
#    CHORUS    #
################
E|-------------------|-------------------|-------------------|-------------------|
B|-------------------|-------------------|-------------------|-------------------|
G|-------------------|-------------------|-------------------|-------------------|
D|--6--6--6--4--6--9-|--6--6--6--4--6--9-|--6--6--6--4--6--9-|--6--6--6--4--6--9-|
A|--4--4--4--2--4--7-|--4--4--4--2--4--7-|--4--4--4--2--4--7-|--4--4--4--2--4--7-|
E|-------------------|-------------------|-------------------|-------------------|
   Move To The Music Yeah The Fucking Music Move It To The Music Yeah LetsGetItOn

E|-------------------|-------------------|-------------------|-------------------|
B|-------------------|-------------------|-------------------|-------------------|
G|-------------------|-------------------|-------------------|-------------------|
D|--6--6--6--4--6--9-|--6--6--6--4--6--9-|--6--6--6--4--6--9-|--6--6--6--4--6--9-|
A|--4--4--4--2--4--7-|--4--4--4--2--4--7-|--4--4--4--2--4--7-|--4--4--4--2--4--7-|
E|-------------------|-------------------|-------------------|-------------------|
   Move To The Music Yeah The Fucking Music Live Through The Music Yeah

################
#   VERSE 1    #
################
E|----------------------------|----------------------------|
B|----------------------------|----------------------------|
G|----------------------------|----------------------------|
D|---6----4----6------6%%%4---|----------------------------|
A|---4----2----4------4%%%2---|----------------------------|
E|----------------------------|----------------------------|
  Now Get The Guns The Drugs For My Generation I'll Take

E|----------------------------|----------------------------|
B|----------------------------|----------------------------|
G|----------------------------|----------------------------|
D|---6----4----6------6%%%4---|----------------------------|
A|---4----2----4------4%%%2---|----------------------------|
E|----------------------------|----------------------------|
     The Fall    The Saints  Across The Nation Yeah It's

E|----------------------------|----------------------------|
B|----------------------------|----------------------------|
G|----------------------------|----------------------------|
D|---6----4----6------6%%%4---|---6----4----6------6%%%4---|
A|---4----2----4------4%%%2---|---4----2----4------4%%%2---|
E|----------------------------|----------------------------|
  Sex The Gods The Fakes The Frauds They're Messin With Me

E|---------------------------------------|
B|---------------------------------------|
G|---------------------------------------|
D|-------4-6-------4-6---------4-6-------|
A|-------2-4-------2-4---------2-4-------|
E|---------------------------------------|
      Come On   Come On     Come On

################
#  PRE CHORUS  #
################
E|-------------------|
B|-----------6-------|
G|-----------4-------|
D|--4--6--4-----4--6-|
A|--2--4--2-----2--4-|
E|-------------------|
     Let's Get It On

################
#    CHORUS    #
################
E|-------------------|-------------------|-------------------|-------------------|
B|-------------------|-------------------|-------------------|-------------------|
G|-------------------|-------------------|-------------------|-------------------|
D|--6--6--6--4--6--9-|--6--6--6--4--6--9-|--6--6--6--4--6--9-|--6--6--6--4--6--9-|
A|--4--4--4--2--4--7-|--4--4--4--2--4--7-|--4--4--4--2--4--7-|--4--4--4--2--4--7-|
E|-------------------|-------------------|-------------------|-------------------|
   Move To The Music Yeah The Fucking Music Move It To The Music Yeah LetsGetItOn

E|-------------------|-------------------|-------------------|-------------------|
B|-------------------|-------------------|-------------------|-------------------|
G|-------------------|-------------------|-------------------|-------------------|
D|--6--6--6--4--6--9-|--6--6--6--4--6--9-|--6--6--6--4--6--9-|--6--6--6--4--6--9-|
A|--4--4--4--2--4--7-|--4--4--4--2--4--7-|--4--4--4--2--4--7-|--4--4--4--2--4--7-|
E|-------------------|-------------------|-------------------|-------------------|
   Move To The Music Yeah The Fucking Music Live Through The Music Yeah

################
#   VERSE 2    #
################
E|----------------------------|----------------------------|
B|----------------------------|----------------------------|
G|----------------------------|----------------------------|
D|---6----4----6------6%%%4---|----------------------------|
A|---4----2----4------4%%%2---|----------------------------|
E|----------------------------|----------------------------|
   Forget The Lies The Money We're In This Together And

E|----------------------------|----------------------------|
B|----------------------------|----------------------------|
G|----------------------------|----------------------------|
D|---6----4----6------6%%%4---|----------------------------|
A|---4----2----4------4%%%2---|----------------------------|
E|----------------------------|----------------------------|
   Through It All They Said That Nothing's Forevever And

E|----------------------------|----------------------------|
B|----------------------------|----------------------------|
G|----------------------------|----------------------------|
D|---6----4----6------6%%%4---|---6----4----6------6%%%4---|
A|---4----2----4------4%%%2---|---4----2----4------4%%%2---|
E|----------------------------|----------------------------|
 They Refused To See The Change In Me Why Won't They Wake Up

E|---------------------------------------|
B|---------------------------------------|
G|---------------------------------------|
D|-------4-6-------4-6---------4-6-------|
A|-------2-4-------2-4---------2-4-------|
E|---------------------------------------|
      Come On   Come On     Come On

################
#  PRE CHORUS  #
################
E|-------------------|
B|-----------6-------|
G|-----------4-------|
D|--4--6--4-----4--6-|
A|--2--4--2-----2--4-|
E|-------------------|
     Let's Get It On

################
#    CHORUS    #
################
E|-------------------|-------------------|-------------------|-------------------|
B|-------------------|-------------------|-------------------|-------------------|
G|-------------------|-------------------|-------------------|-------------------|
D|--6--6--6--4--6--9-|--6--6--6--4--6--9-|--6--6--6--4--6--9-|--6--6--6--4--6--9-|
A|--4--4--4--2--4--7-|--4--4--4--2--4--7-|--4--4--4--2--4--7-|--4--4--4--2--4--7-|
E|-------------------|-------------------|-------------------|-------------------|
   Move To The Music Yeah The Fucking Music Move It To The Music Yeah LetsGetItOn

E|-------------------|-------------------|-------------------|-------------------|
B|-------------------|-------------------|-------------------|-------------------|
G|-------------------|-------------------|-------------------|-------------------|
D|--6--6--6--4--6--9-|--6--6--6--4--6--9-|--6--6--6--4--6--9-|--6--6--6--4--6--9-|
A|--4--4--4--2--4--7-|--4--4--4--2--4--7-|--4--4--4--2--4--7-|--4--4--4--2--4--7-|
E|-------------------|-------------------|-------------------|-------------------|
   Move To The Music Yeah The Fucking Music Live Through The Music Yeah

################
#    BRIDGE    #
################
Guitar 1 Plays Effects During The Bridge
Move To The Music Move It To The Music Yeah
Move To The Music Live Through The Music Yeah
Move To The Music Move It To The Music Yeah
Move To My Music Live Through My Music Yeah

################
#    CHORUS    #
################
E|-------------------|-------------------|-------------------|-------------------|
B|-------------------|-------------------|-------------------|-------------------|
G|-------------------|-------------------|-------------------|-------------------|
D|--6--6--6--4--6--9-|--6--6--6--4--6--9-|--6--6--6--4--6--9-|--6--6--6--4--6--9-|
A|--4--4--4--2--4--7-|--4--4--4--2--4--7-|--4--4--4--2--4--7-|--4--4--4--2--4--7-|
E|-------------------|-------------------|-------------------|-------------------|
   Move To The Music Yeah The Fucking Music Move It To The Music Yeah LetsGetItOn

E|-------------------|-------------------|-------------------|-------------------|
B|-------------------|-------------------|-------------------|-------------------|
G|-------------------|-------------------|-------------------|-------------------|
D|--6--6--6--4--6--9-|--6--6--6--4--6--9-|--6--6--6--4--6--9-|--6--6--6--4--6--9-|
A|--4--4--4--2--4--7-|--4--4--4--2--4--7-|--4--4--4--2--4--7-|--4--4--4--2--4--7-|
E|-------------------|-------------------|-------------------|-------------------|
   Move To The Music Yeah The Fucking Music Live Through The Music Yeah

E|-------------------|-------------------|-------------------|-------------------|
B|-------------------|-------------------|-------------------|-------------------|
G|-------------------|-------------------|-------------------|-------------------|
D|--6--6--6--4--6--9-|--6--6--6--4--6--9-|--6--6--6--4--6--9-|--6--6--6--4--6--9-|
A|--4--4--4--2--4--7-|--4--4--4--2--4--7-|--4--4--4--2--4--7-|--4--4--4--2--4--7-|
E|-------------------|-------------------|-------------------|-------------------|
   Move To The Music Yeah The Fucking Music Move It To The Music Yeah LetsGetItOn

E|-------------------|-------------------|-------------------|-------------------|
B|-------------------|-------------------|-------------------|-------------------|
G|-------------------|-------------------|-------------------|-------------------|
D|--6--6--6--4--6--9-|--6--6--6--4--6--9-|--6--6--6--4--6--9-|--6--6--6--4--6--9-|
A|--4--4--4--2--4--7-|--4--4--4--2--4--7-|--4--4--4--2--4--7-|--4--4--4--2--4--7-|
E|-------------------|-------------------|-------------------|-------------------|
   Move To The Music Yeah The Fucking Music Live Through The Music Yeah

################
#    OUTRO     #
################
Effects From The Bridge Play Until Fade Out

################
# TAB NOTATION #
################
%%%: Gradually lift up on Expression Pedal

                                    (c) 2005 Transcribed By [LS]Lgndkllr777
                                           (c) 2002 Portrait Records
comments
We did not receive enough feedback on this tab! Please rate:
print report bad tab
1 2 3 4 5
I want to post or [tab]
guest
You may want to rate the tab now too:
select rating
Please do not post tabs as comments. Select "correction" instead!