Oops, an error
Loading. Please wait.

Turn Me On Mr Deadman Tab

version 1
version 1

Whole song

Interactive

514 views 1 this week
no commentswrite comment
1 2 3 4 5
accurate
x 5
add to favorites
launch autoscroll
font size
0
reset
how to read this tab
guitar tuner
Tab Pro tools
  • play this tab
  • loop segment
  • change instrument
  • show fretboard
  • metronome
×
Best way to learn
"Turn Me On Mr Deadman"
Autoscroll
slow
fast
+/-
esc
set tempo
stop
Song:  Turn Me On "Mr. Deadman"
Band:  The Union Underground
Album: An Education in Rebellion
Transcribed by: Chris Smith
Email:  BlackDove216@aol.com

Tuning: Dropped D tuning w/ heavy distortion

Intro and verse goes something like this:
E--------------------------------------------------------------------
B--------------------------------------------------------------------
G-------------------------------------------------------6b----------   Repeat 
8 times     Then...
D---x--x--x--x--x--x--x--x--x--x--x--x--x--x--6b----------
A---x--x--x--x--x--x--x--x--x--x--x--x--x--x--4b---------
D---x--x--x--x--x--x--x--x--x--x--x--x--x--x---------------

CHORUS
E------------------------------------------------------------------------------------------------------------------
B------------------------------------------------------------------------------------------------------------------
G------------------------------------------------------------------------------------------------------------------
D---5----5--3--5----5--3--5----5--11-11-11-11--5----5--3--5----5--3--5----5--0-0-7-6-5--------
A---5----5--3--5----5--3--5----5--11-11-11-11--5----5--3--5----5--3--5----5--0-0-7-6-5--------
D---5----5--3--5----5--3--5----5--11-11-11-11--5----5--3--5----5--3--5----5--0-0-7-6-5--------

VERSE
E--------------------------------------------------------------------
B--------------------------------------------------------------------
G-------------------------------------------------------6b----------   Repeat 
6 times     Then...
D---x--x--x--x--x--x--x--x--x--x--x--x--x--x--6b----------
A---x--x--x--x--x--x--x--x--x--x--x--x--x--x--4b----------
D---x--x--x--x--x--x--x--x--x--x--x--x--x--x----------------

CHORUS
E------------------------------------------------------------------------------------------------------------------
B------------------------------------------------------------------------------------------------------------------
G------------------------------------------------------------------------------------------------------------------
D---5----5--3--5----5--3--5----5--11-11-11-11--5----5--3--5----5--3--5----5--0-0-7-6-5--------
A---5----5--3--5----5--3--5----5--11-11-11-11--5----5--3--5----5--3--5----5--0-0-7-6-5--------
D---5----5--3--5----5--3--5----5--11-11-11-11--5----5--3--5----5--3--5----5--0-0-7-6-5--------

Now it comes to a more silent part in the song. There is a strange sound in 
it that you can reproduce with a wah pedal. Just rock it back and forth and 
play this:

E-----------------
B-----------------
G-----------------  Repeat 6 times.     Then....
D---5---5---------
A---5---5---------
D---5---5---------

E----------------------------------------------------------------
B----------------------------------------------------------------
G---------------------------------------------------------------- Repeat 
once.     Then...
D---3--5--5--3--5--5--5--5--3--5--5--3--5--5--5--5---
A---3--5--5--3--5--5--5--5--3--5--5--3--5--5--5--5---
D---3--5--5--3--5--5--5--5--3--5--5--3--5--5--5--5---

----------------------------------
Play Chorus Twice   Then..........
----------------------------------

OUTRO
E------------------------
B------------------------
G------------------------
D---5-5-x-x-x-x------  Repeat 6 times.     Then....
A---5-5-x-x-x-x------
D---5-5-x-x-x-x------

E-----------------------
B-----------------------
G-----------------------
D---5-5-5-5b---------
A---5-5-5-5b---------
D---5-5-5-5b---------

There it is for all you Union Underground fans!

Note: For the closest distortion sound to the album's, I recommend the Zoom 
GFX Processor. It's a great pedal that runs for a few hundred dollars, but if 
you play in a band or write your own music, it's definetly worth it. Peace 
out!
comments
print report bad tab
I want to post or [tab]
guest
You may want to rate the tab now too:
select rating
Please do not post tabs as comments. Select "correction" instead!