Oops, an error
Loading. Please wait.

Act The Part Bass Tab

288 views 3 this week
no commentswrite comment
1 2 3 4 5
please rate
add to favorites
launch autoscroll
font size
0
reset
guitar tuner
Tab Pro tools
  • play this tab
  • loop segment
  • change instrument
  • show fretboard
  • metronome
×
Best way to learn
"Act The Part"
Autoscroll
slow
fast
+/-
esc
set tempo
stop
Contributor
PART1
G-------------------------------------------------------------------------|
D-------------------------------------------------------------------------|
A--------------------0-00-000-0000-0000--------------------1-11-111-0010--|
E-1-11-111-1111-1111--------------------3-33-333-3333-3333----------------|

PART2
G-----------------------------------|
D-----------------------------------|
A-33-3333---------------------------|
E---------44-4444-11-1111-3-33-333--|

PART3
G---------------------------------|
D---------------------------------|
A-00-0000-33-3333---------11-1111-|
E-----------------33-3333---------|

PART4
G-------------------|
D-------------------|
A-11-1111-00-0000-0-|
E-------------------|

FINISH:
G--------|
D--------|
A-3~---3-|
E--------|

ORDER:
PART1 5X
PART2 4X
PART1 3X
PART2 4X
PART3 4X
PART4 1X
PART2 6X
FINISH

thats it.. i guess.. have fun..
  xxSID
comments
We did not receive enough feedback on this tab! Please rate:
print report bad tab
1 2 3 4 5
I want to post or [tab]
guest
You may want to rate the tab now too:
select rating
Please do not post tabs as comments. Select "correction" instead!