Oops, an error
Loading. Please wait.

At Point Break Tab

version 2
version 2

Whole song

664 views 1 this week
1 commentread comment
1 2 3 4 5
please rate
add to favorites
launch autoscroll
font size
0
reset
how to read this tab
guitar tuner
Tab Pro tools
  • play this tab
  • loop segment
  • change instrument
  • show fretboard
  • metronome
×
Best way to learn
"At Point Break"
Autoscroll
slow
fast
+/-
esc
set tempo
stop
Contributor
*=palm mute

Intro
|-------------------------------------------------------|
|-------------------------------------------------------|
|-4-4444-4-4-4-7-7777-7-7-11-9-9999-9-9-11-9-7-4-4444-4-|
|-4-4444-4-4-6-7-7777-7-7-11-9-9999-9-9-11-9-7-4-4444-4-|
|-2-2222-2-2-6-5-5555-5-5- 9-7-7777-7-7 -9-7-5-2-2222-2-|
|-------------------------------------------------------|
    ****         ****          ****              ****

verse
|-----------------------------------------------------------------------|
|-----------------------------------------------------------------------|
|-4-4444-2-4-4444-7--9--4-4444-2-4-4444-2-7--9--4-4444-2-4-4444-2-7--9--|
|-4-4444-2-4-4444-7--9--4-4444-2-4-4444-2-7--9--4-4444-2-4-4444-2-7--9--|
|-2-2222-0-2-2222-5--7--2-2222-0-2-2222-0-5--7--2-2222-0-2-2222-0-5--7--|
|-----------------------------------------------------------------------|
    ***      ***          ***      ***            ***      ***

Chorus (x2)
|-------------------------------------------------|
|-------------------------------------------------|
|-4---2---7--6-76-4-2----4---2---7---4---4---2----|
|-4---2---7--6-76-4-2-2- 4---2---7---4---4---2---2|
|-2---0---5--4-54-2-0-2- 2---0---5---2---2---0---2|
|---------------------0--------------------------0|

Solo thing
|-------------------------------------------------------------------|
|-------------------------------------------------------------------|
|-4444444444-677777777777-1199999-11-9-11-9-4444444444-111111111111-|
|-------------------------------------------------------------------|
|-------------------------------------------------------------------|
|-------------------------------------------------------------------|
continued
|-------------------------------|
|-------------------------------|
|9999999999-77777777777-979-424-|
|-------------------------------|
|-------------------------------|
|-------------------------------|

order
intro guitar 1
2x
intro guitars 1&2
2x
Verse both guitars
1x
Chorus both guitars
1x
intro both guitars
2x
verse both guitars
1x
chorus both guitars
1x
Intro guitar 1
2x
intro guitar 1 2x and solo guitar 2 1x

this probably isn’t the best to go by, listening to the song while playing the tabs 
be better
comments
We did not receive enough feedback on this tab! Please rate:
print report bad tab
1 2 3 4 5
1 comment total.
-1 reply
The Real AJ wrote on August 17 2008, 01:02 pm

i think this version is a lot harder to play and i tabbed it yesterday and it got rejected and i dont know why cuz this one and the other one arent that good

I want to post or [tab]
guest
You may want to rate the tab now too:
select rating
Please do not post tabs as comments. Select "correction" instead!