Oops, an error
Loading. Please wait.

Dead And Gone Tab

300 views 1 this week
1 commentread comment
1 2 3 4 5
worth learning
x 2
add to favorites
launch autoscroll
font size
0
reset
how to read this tab
guitar tuner
Tab Pro tools
  • play this tab
  • loop segment
  • change instrument
  • show fretboard
  • metronome
Autoscroll
slow
fast
+/-
esc
set tempo
stop
DEAD AND GONE – The Unseen

By: Colin St. George (colinastg@aol.com)

This is 100% correct. If it isn't E-mail me. 
Listen to the song and you will get it.

< = pick slide towards the head

Intro:
e|---------------------------------------------------------------------------|
B|---------------------------------------------------------------------------|
G|---------------------------------------------------------------------------|
D|--7---7---7---7--<<<<------------------------------------------------------|
A|--7---7---7---7--<<<<------------------------------------------------------|
E|--5---5---5---5--<<<<------------------------------------------------------|

Chorus:
e|---------------------------------------------------------------------------|
B|---------------------------------------------------------------------------|
G|-----------10-10-10-10-----------------------------------------------------|
D|--7-7-7-7--10-10-10-10--9-9-9-9--5-5-5-5-----------------------------------|
A|--7-7-7-7---8--8--8--8--9-9-9-9--5-5-5-5-----------------------------------|
E|--5-5-5-5---------------7-7-7-7--3-3-3-3-----------------------------------|

e|---------------------------------------------------------------------------|
B|---------------------------------------------------------------------------|
G|-----------10-10-10-10-----------7-7-7-7-----------------------------------|
D|--7-7-7-7--10-10-10-10--9-9-9-9--7-7-7-7-----------------------------------|
A|--7-7-7-7---8--8--8--8--9-9-9-9--5-5-5-5-----------------------------------|
E|--5-5-5-5---------------7-7-7-7--------------------------------------------|

Verse:
e|---------------------------------------------------------------------------|
B|---------------------------------------------------------------------------|
G|-----------------------------4—-5—-4--5------------------------------------|
D|--2-2-2-2--7-7-7-7--5-5-5-5--4—-5—-4--5--------------- (x4ver) ------------|
A|--2-2-2-2--7-7-7-7--5-5-5-5--2—-3—-2--3------------------------------------|
E|--0-0-0-0--5-5-5-5--3-3-3-3------------------------------------------------|

Pre-Break down:
e|---------------------------------------------------------------------------|
B|---------------------------------------------------------------------------|
G|-----------------------------------7-7-7-7---------------------------------|
D|--7--9-9-9-9-9-9-9-9--10-10-10-10--7-7-7-7---------------------------------|
A|--7--9-9-9-9-9-9-9-9--10-10-10-10--5-5-5-5---------------------------------|
E|--5--7-7-7-7-7-7-7-7---8--8--8--8------------------------------------------|

Break down:
e|---------------------------------------------------------------------------|
B|---------------------------------------------------------------------------|
G|-----9-----9------9---------7----------------------------------------------|
D|--7-----2-----10-----9--10--7----------------------------------------------|
A|--7-----2-----10-----9--10--5----------------------------------------------|
E|--5-----0------8-----7---8-------------------------------------------------|

Play in this order:
Intro
Chorus (x2)
Verse (x4)
Chorus (x2)
Verse (x4)
Chorus (x2)
Pre-Break down
Break down (x3)
Chorus (x2)
comments
We did not receive enough feedback on this tab! Please rate:
print report bad tab
1 2 3 4 5
1 comment total.
0 reply
dandersen wrote on June 19 2009, 03:35 am

this is horrible

I want to post or [tab]
guest
You may want to rate the tab now too:
select rating
Please do not post tabs as comments. Select "correction" instead!