Oops, an error
Loading. Please wait.

Dont Look Back Bass Tab

258 views 1 this week
no commentswrite comment
1 2 3 4 5
please rate
add to favorites
launch autoscroll
font size
0
reset
guitar tuner
Tab Pro tools
  • play this tab
  • loop segment
  • change instrument
  • show fretboard
  • metronome
×
Best way to learn
"Dont Look Back"
Autoscroll
slow
fast
+/-
esc
set tempo
stop
Contributor
Difficulty
intermediate
The Unseen-Don't Look Back
standard EADG tuning

verse (for 1st one wait until guitar plays it once)
G|------------------------------------------------------------|
D|------------------------------------------------------------|
A|------------7-88888888-7-5-555-555-555-55-7-777-777-777-777-|
E|-7-7-777-77-------------------------------------------------|x3

chorus
G|---------------------------------|
D|---------------------------------|
A|-----------------5-5-555-4-44-54-|
E|-7-7-777-5-5-555-----------------|x4

Verse x3

Chorus x4

Bridge
G|--------------------------------------------------|
D|--------------------------------------------------|
A|--------------------------------------------------|
E|-777777777777777777777777777777777777777777777777-|

G|-------------------------------------------------|
D|---9---9---9---9---9---9---9---9---9---9---9---9-|
A|-------------------------------------------------|
E|-7---7---7---7---7---7---7---7---7---7---7---7---|

Chorus x4

Ending
G|----------------------------------------------------|
D|----------------------------------------------------|
A|-5-555-554-444-445-555-554-444-445-555-554-444-44---|
E|--------------------------------------------------7-|

thanx, good tab, good song, please rate and comment.
-punkbass479
comments
We did not receive enough feedback on this tab! Please rate:
print report bad tab
1 2 3 4 5
I want to post or [tab]
guest
You may want to rate the tab now too:
select rating
Please do not post tabs as comments. Select "correction" instead!