Oops, an error
Loading. Please wait.

Explode Tab

508 views 1 this week
no commentswrite comment
1 2 3 4 5
please rate
add to favorites
launch autoscroll
font size
0
reset
how to read this tab
guitar tuner
Tab Pro tools
  • play this tab
  • loop segment
  • change instrument
  • show fretboard
  • metronome
×
Best way to learn
"Explode"
Autoscroll
slow
fast
+/-
esc
set tempo
stop
Contributor
-------------------------------------------------------------------------------
                             Explode - the Unseen
-------------------------------------------------------------------------------
Tabbed by:Casanova!
Email:Burtnboardr101@hotmail.com

Tuning:Standard

Yeah so..this is a kick ass song and no one else tabbed it so I did. Hope you enjoy it.

intro
e|---------------------------------------------------------------------------|
B|---------------------------------------------------------------------------|
G|---------------------------------------------------------------------------|
D|---------------------------------------------------------------------------|
A|-109--999-999-910-------------109--999--999--910---------------------------|
E|--87--777-777-78-----x3 then---87--777--777--78----------------------------|


Riff A
e|---------------------------------------------------------------------------|
B|---------------------------------------------------------------------------|
G|------------77--799--------------------------------------------------------|
D|-109--999--977--799--------------------------------------------------------|
A|-109--999--955--577--------------------------------------------------------|
E|--87--777--7---------------------------------------------------------------|

Riff B
e|---------------------------------------------------------------------------|
B|---------------------------------------------------------------------------|
G|---------------------------------------------------------------------------|
D|--44--444--444--44--4------------------------------------------------------|
A|--44--444--444--44--4------------------------------------------------------|
E|--22--222--222--22--2------------------------------------------------------|


Riff C
e|---------------------------------------------------------------------------|
B|---------------------------------------------------------------------------|
G|---------------------------------------------------------------------------|
D|--44--444--444--442--255-555--555--552--2----------------------------------|
A|--44--444--444--442--255-555--555--552--2----------------------------------|
E|--22--222--222--220--033-333--333--330--0----------------------------------|

e|---------------------------------------------------------------------------|
B|---------------------------------------------------------------------------|
G|---------------------------------------------------------------------------|
D|--44--444--444--442--255-555--57--7--7-------------------------------------|
A|--44--444--444--442--255-555--57--7--7-------------------------------------|
E|--22--222--222--220--033-333--35--5--5-------------------------------------|

Riff D
e|---------------------------------------------------------------------------|
B|---------------------------------------------------------------------------|
G|---------------------------------------------------------------------------|
D|--------------9--7--55--555--577--777-79-----------------------------------|
A|--------------9--7--55--555--577--777-79-----------------------------------|
E|--7775777577757--5--33--333--355--555-57-----------------------------------|
PM  xxxxxxxxxxxx


Solo
e|---------------------------------------------------------------------------|
B|---------------------------------------------------------------------------|
G|---------------------------------------------------------------------------|
D|-------0---------0---------------------------------------------------------|
A|--22--2-2--022--2-2--2-----2----00--040--0---------------------------------|
E|----------------------33--3-3--3-------------------------------------------|

e|---------------------------------------------------------------------------|
B|---------------------------------------------------------------------------|
G|---------------------------------------------------------------------------|
D|-------0---------0----00--040--------2-------------------------------------|
A|--22--2-2--022--2-2--0---------244--4-4--0---------------------------------|
E|---------------------------------------------------------------------------|


Order of the song:

Intro
Riff A x4
Riff B x1
Riff A x4
Riff C x1
Riff A x4
Riff B x1
Riff A x4
Riff C x1
Riff D x4
Solo x2 or Riff D x4 with no mutes(your choice)
Riff D x1

fin

hope you enjoy it. I'm pretty sure it's 97%ish correct. Rate well.

| /  slide up
| \  slide down
| h  hammer-on
| p  pull-off
| ~  vibrato
| +  harmonic
| x  Mute note
===============================================================================
comments
We did not receive enough feedback on this tab! Please rate:
print report bad tab
1 2 3 4 5
I want to post or [tab]
guest
You may want to rate the tab now too:
select rating
Please do not post tabs as comments. Select "correction" instead!