Oops, an error
Loading. Please wait.

Final Execution Armageddon Tab

version 1
version 1

Intro

Whole song

Interactive

959 views 1 this week
2 commentsread comments
1 2 3 4 5
please rate
add to favorites
launch autoscroll
font size
0
reset
how to read this tab
guitar tuner
Tab Pro tools
  • play this tab
  • loop segment
  • change instrument
  • show fretboard
  • metronome
×
Best way to learn
"Final Execution Armageddon"
Autoscroll
slow
fast
+/-
esc
set tempo
stop
Contributor
Difficulty
novice
its all i got so far so bare with me, the rest is gonna be comming
Listen to it to get the general rythem.

E|---------------------------------------------------------------------|
B|---------------------------------------------------------------------|
G|---------------------------------------------------------------------|
D|-------------------8-8-8-7-7-8-8------------------10-10-10-9-9-10-10-|
A|--7-7-7-10-7-7-7-7---------------7-7-7-10-7-7-7-7--------------------|
E|---------------------------------------------------------------------|


E|---------------------------------------------------------------------|
B|---------------------------------------------------------------------|
G|---------------------------------------------------------------------|
D|-------------------8-8-8-7-7-8-8--9-9-8-8-5-5-4-4--------------------|
A|--7-7-7-10-7-7-7-7----------------9-9-8-8-5-5-4-4--------------------|
E|----------------------------------7-7-6-6-3-3-2-2--------------------|

AFTER THAT-
i found it seemed to be the same as the above but played in power chords (all of it)
thats all ive found so far but ill keep looking

any corrections welcome
blood-guts-punkrock@hotmail.co.uk
comments
We did not receive enough feedback on this tab! Please rate:
print report bad tab
1 2 3 4 5
2 comments total.
0 reply
antiflag125462 wrote on December 25 2006, 11:29 am

I know how to play the song I just havent tabbed it out its using 2 guitars and one guitar is playing low while the other plays higher notes, I'll tab it out today and post it tomoro

0 reply
Adam_Harrison9 wrote on January 23 2007, 11:06 am

Yay thankyou I desperately need this tab

I want to post or [tab]
guest
You may want to rate the tab now too:
select rating
Please do not post tabs as comments. Select "correction" instead!