Oops, an error
Loading. Please wait.

Force Fed Bass Tab

version 1
version 1

Whole song

Interactive

98 views 1 this week
no commentswrite comment
1 2 3 4 5
please rate
add to favorites
launch autoscroll
font size
0
reset
guitar tuner
Tab Pro tools
  • play this tab
  • loop segment
  • change instrument
  • show fretboard
  • metronome
×
Best way to learn
"Force Fed"
Autoscroll
slow
fast
+/-
esc
set tempo
stop
easy, easy!

Intro:
G--------------------------|
D--------------------------|
A-4~----------2~-----------|(X2)
E-----2~--5~---------------|

Verse:
G-------------------------------------------------------------------|
D--------------------------------421--------------------------------|
A-44444444-------------------2222---2-------------------------------|(X2)
E----------22222222-55555555----------------------------------------|

Chorus:
G-------------------------------------------------------------------|
D-------------------------------------------------------------------|
A-4-4----4-4----4444-2222-44-00000002-------------------------------|(X2)
E-------------------------------------------------------------------|

Verse (X2)
Chorus (X2)

Guitar Solo:
G-------------------------------------------------------------------|
D--------------------------------421--------------------------------|
A-44444444-------------------2222---2-------------------------------|(X3)
E----------22222222-55555555----------------------------------------|

G-------------------------------------------------------------------|
D-------------------------------------------------------------------|
A-4-4-4-4--------------------22222222-------------------------------|
E----------2-2-2-2--55555555----------------------------------------|

Outro:
G-------------------------------------------------------------------|
D--------------------------------421--------------------------------|
A-44444444-------------------2222---2-------------------------------|(X2)
E----------22222222-55555555----------------------------------------|

End on:
A-4~---
comments
We did not receive enough feedback on this tab! Please rate:
print report bad tab
1 2 3 4 5
I want to post or [tab]
guest
You may want to rate the tab now too:
select rating
Please do not post tabs as comments. Select "correction" instead!