Oops, an error
Loading. Please wait.

Force Fed Tab

version 1
version 1

Whole song

Interactive

248 views 1 this week
no commentswrite comment
1 2 3 4 5
excellent!
x 1
add to favorites
launch autoscroll
font size
0
reset
how to read this tab
guitar tuner
Tab Pro tools
  • play this tab
  • loop segment
  • change instrument
  • show fretboard
  • metronome
Autoscroll
slow
fast
+/-
esc
set tempo
stop
Contributor
This song is incredibly well written and im pretty sure some of the solo is wrong.  
corrections in the comments and i will edit them into the tab.

Legend
~= hold note
/and\= slide
b= bend
*= play many times
br= bend/release
+= harmonic
v= vibrato

Intro
E|-----------------|
B|-----------------|
G|6~--------2~---4~|
D|6~---4~---2~---4~|x2
A|4~---4~---0~---2~|
E|-----2~----------|

Verse
E|---------------------------------------|
B|---------------------------------------|
G|6664-6664-----------2222-2222-4444-4444|
D|6664-6664-4444-4444-2222-2222-4444-4444|x2
A|4442-4442-4444-4444-0000-0000-2222-2222|
E|----------2220-2220--------------------|

Chorus
E|----------------------------------------|
B|----------------------------------------|
G|6~--------6~--------6666-444/6\2222-2222|
D|6~--------6~--------6666-444/6\2222-2222|x2
A|4~--------4~--------4444-222/4\0000-0000|
E|----------------------------------------|


Straight Back into Verse


Then Back To Chorus this time with some lead
E|------------99--99--|
B|--------------99--99|
G|--66--66------------|
D|----66--66----------|
A|--------------------|
E|--------------------|


Solo
E|------------------------------------------|
B|------------------------------------------|
G|666-698986-666-698986-9868-986~-986-9/11--|
D|------------------------------------------|
A|------------------------------------------|
E|------------------------------------------|

E|---------------------------------------------------------------|
B|9b9b9b9b9b9b9b9b9b9b9b9b9b9b-----------------------------------|
G|----------------------------11b11b-11b-9----9----9-------------|
D|-----------------------------------------11---11---11-9----9-11|
A|--------------------------------------------------------11-----|
E|---------------------------------------------------------------|

i have no clue what is played here

When he starts saying why
E|9b-9b-9b-9b-11b-11b-11b-11b-12b*-14b*|
B|-------------------------------------|
G|-------------------------------------|
D|-------------------------------------|
A|-------------------------------------|
E|-------------------------------------|

E|9-9-99-9999-11-11-1111-11111111-12-12-1212-12121212-14-14-1414-14141414|
B|-----------------------------------------------------------------------|
G|-----------------------------------------------------------------------|
D|-----------------------------------------------------------------------|
A|-----------------------------------------------------------------------|
E|-----------------------------------------------------------------------|

E|9999--------11111111-------12+121212--------14141414-------141414|
B|-----------------------------------------------------------------|
G|-----11br-9---------11br-9-----------11br-9---------11br-9-------|
D|-----------------------------------------------------------------|
A|-----------------------------------------------------------------|
E|-----------------------------------------------------------------|

E|141414br-12-9vvvvv|
B|------------------|
G|------------------|
D|------------------|
A|------------------|
E|------------------|

Rhythm for that entire part
E|---------------------------------------|
B|---------------------------------------|
G|6666-6666-----------2222-2222-4444-4444|
D|6666-6666-4444-4444-2222-2222-4444-4444|x3
A|4444-4444-4444-4444-0000-0000-2222-2222|
E|----------2222-2222--------------------|

E|-----------------------------------------|
B|-----------------------------------------|
G|6-6-6666-6-6-6666-9-9-9999-11-11-11111111|
D|6-6-6666-6-6-6666-9-9-9999-11-11-11111111|
A|4-4-4444-4-4-4444-7-7-7777--9--9--9-9-9-9|
E|-----------------------------------------|

E|---------------------------------------|
B|---------------------------------------|
G|6666-6666-----------2222-2222-4444-4444|
D|6666-6666-4444-4444-2222-2222-4444-4444|x2
A|4444-4444-4444-4444-0000-0000-2222-2222|
E|----------2222-2222--------------------|

End On
E|--|
B|--|
G|6~|
D|6~|
A|4~|
E|--|
comments
We did not receive enough feedback on this tab! Please rate:
print report bad tab
1 2 3 4 5
I want to post or [tab]
guest
You may want to rate the tab now too:
select rating
Please do not post tabs as comments. Select "correction" instead!