Oops, an error
Loading. Please wait.

Paint It Black bass

version 1
version 1

Whole song

Interactive

1,832 views 1 this week
no commentswrite comment
1 2 3 4 5
3 more votes to show rating
add to favorites
×
Save as Personal and add changes to this tab that will be seen only by you. Learn more ›
×
You can save this tab as Personal to edit and correct it or add notes. All changes will be seen only by you. Learn more »
launch autoscroll
font size
0
reset
guitar tuner
edit
Autoscroll
slow
fast
+/-
esc
set tempo
stop
Author
rolling stones cover.

Intro (0:11)
G|---------|
D|-2~--2~--|
A|---------|
E|---------|

Verse 
G|--------------------------------| 
D|2222222222222222----------------| 
A|----------------2222222222222222| 
E|--------------------------------| 

Chorus
G|-------------------------------------| 
D|2-2-0-0---------2-2222222--0-22222222| 
A|------------5-5----------------------| 
E|--------3-3--------------------------| 

G|--------------------------------| 
D|2-2-0-0-------------------------| 
A|------------5-5-0000000055555555| 
E|--------3-3---------------------| 

Verse Variation
G|------|--------
D|2~----|-2~-----|
A|----2~|-----2~-|
E|------|--------|

Bridge 
G|-----------------------------------------| 
D|2-2222-2222-22222222---------------------| 
A|---------------------2-2222-2222-22222222| 
E|-----------------------------------------| 

End On 
G|--| 
D|2~| 
A|--| 
E|--| 

Intro
 Verse x2
Chorus
 Verse x2
Chorus
 Verse x2
Chorus
 Verse Vx2
Chorus
Bridge x2
 Verse x4
Bridge x2
 End


            
            
Suggest correction
Creating personal tab
Creating personal tab
You can edit any tab online and save it as your Personal.

You can edit, replace or remove any tab part or add personal notes – all changes will be seen only by you.

Personal tabs can be accessed anytime from any device, even offline.
Learn more »
Give kudos to tab author, rate the tab!
1 2 3 4 5
comments
print report bad tab
guest
You may want to rate the tab now too:
select rating
Wanna post a correction for this tab? Suggest correction