Oops, an error
Loading. Please wait.

Scream Out Bass Tab

version 1
version 1

Whole song

Interactive

2,303 views 1 this week
no commentswrite comment
1 2 3 4 5
accurate
x 4
add to favorites
launch autoscroll
font size
0
reset
guitar tuner
Tab Pro tools
  • play this tab
  • loop segment
  • change instrument
  • show fretboard
  • metronome
×
Best way to learn
"Scream Out"
Autoscroll
slow
fast
+/-
esc
set tempo
stop
Title: SCREAM OUT	
Artist: THE UNSEEN
Genre: PUNK
Tabber: Jose Guerra

Standard Tuning: EADG	


INTRO:(Guitar plays first)
G|------------------------777777777777777777--------------|
D|--------------------------------------------------------|
A|-555555555555555555-------------------------------------|
E|--------------------------------------------------------|


After "1... 2... 3...Go!":
G|-------------------------------------|
D|-------------------------------------|
A|-555555---333333---111111---333333---|X 2
E|-------------------------------------|



VERSE 1:
G|-------------------------------------|
D|-------------------------------------|
A|-555555---333333---111111---333333---|X 2
E|-------------------------------------|
Well All My Life This Music saved Me
I Can't Afford Your Therapy
My Frustration it needs release, cut me open and hear me bleed


THEN PLAY THE VARIATION OF THE VERSE:
G|-----------------------------------------------|
D|--------7----------5---------3---------5-------|
A|-5-55-----5---3-33--3---1-11--1--1/3-33--3-----|
E|-----------------------------------------------|
Playing punk it keeps me sane, don't need drugs to numb the pain

G|--------------------------------------------------------|
D|--------7----------5------------------------------------|
A|-5-55-----5---3-33--3---1-11111111111111-33333333333333-|
E|--------------------------------------------------------|
It keeps me alive I hope it helps you, I won't let your wothlees America ruin me

G|---------|
D|---------|
A|--5-3----|
E|---------|
     NO WAY!


CHORUS:	
G|-------------------------------------|
D|-------------------------------------|
A|-5-555------------------3-333--------|X 2
E|--------6-666---1-111----------------|
I'm screaming out, somebody listen it feels so good  this therapy
I'm screaming out, somebody listen it feels so good  this therapy


POST CHORUS:
G|-------------------------------------|
D|-------------------------------------|
A|-555555---333333---111111---333333---|X 2
E|-------------------------------------|


VERSE 2:
G|-------------------------------------|
D|-------------------------------------|
A|-555555---333333---111111---333333---|X 2
E|-------------------------------------|
I lost control and hurt myself 
I knew deep down I needed some help
The self-abuse would not stop,
No matter how hard tried



THEN PLAY THE VARIATION OF THE VERSE:
G|-----------------------------------------------|
D|--------7----------5---------3---------5-------|
A|-5-55-----5---3-33--3---1-11--1--1/3-33--3-----|
E|-----------------------------------------------|
So I Lied And I Pulled My Life Together

G|--------------------------------------------------------|
D|--------7----------5------------------------------------|
A|-5-55-----5---3-33--3---1-11111111111111-33333333333333-|
E|--------------------------------------------------------|
Am I Going Insane? Think Again I Got So Fed Up With Being Unstable

G|---------|
D|---------|
A|--5-3----|
E|---------|
     NO MORE!



CHORUS:	
G|-------------------------------------|
D|-------------------------------------|
A|-5-555------------------3-333--------|X 4
E|--------6-666---1-111----------------|
I'm screaming out, somebody listen it feels so good  this therapy
I'm screaming out, somebody listen it feels so good  this therapy
I'm screaming out, somebody listen it feels so good  this therapy
I'm screaming out, somebody listen it feels so good  this therapy


BRIDGE: (The guitar plays 4 times the same riff and then)
G|----------------------------------------------------------------------|
D|----------------------------------------------------------------------|
A|5~~--555555-333333-111111-333333-555555-333333--11-11-11-11--333333333|X 4
E|----------------------------------------------------------------------|


CHORUS:	
G|-------------------------------------|
D|-------------------------------------|
A|-5-555------------------3-333--------|X 6
E|--------6-666---1-111----------------|
I'm screaming out, somebody listen it feels so good  this therapy
I'm screaming out, somebody listen it feels so good  this therapy
I'm screaming out, somebody listen it feels so good  this therapy
I'm screaming out, somebody listen it feels so good  this therapy
I'm screaming out!
I'm screaming out!
I'm screaming out!
I'm screaming out!
I'm screaming out!
I'm screaming out!
I'm screaming out! 
Get Me Some Help! 

END WITH A "D" 
G|------|
D|------|
A|--5~--|
E|------|


Comments? Write to the next mail:
jose_cbx@hotmail.com
comments
print report bad tab
I want to post or [tab]
guest
You may want to rate the tab now too:
select rating
Please do not post tabs as comments. Select "correction" instead!