Oops, an error
Loading. Please wait.

So Sick Of You Bass Tab

version 1
version 1

Whole song

Interactive

688 views 1 this week
no commentswrite comment
1 2 3 4 5
please rate
add to favorites
launch autoscroll
font size
0
reset
guitar tuner
Tab Pro tools
  • play this tab
  • loop segment
  • change instrument
  • show fretboard
  • metronome
×
Best way to learn
"So Sick Of You"
Autoscroll
slow
fast
+/-
esc
set tempo
stop
Contributor
Difficulty
novice
All right, I think this is mostly correct.

~ = Hold Note

Intro:
  0:00-0:20
G-------------------------|
D-------------------------|
A-------------------------|  X2
E-5~---5~-------3~---5~---|

Verse:
  0:21-0:35
G---------------------------------------|
D---------------------------------------|
A---------------------------------------|  X2
E-55555555-55555555-33333333-55555555---|

Chorus:
  0:36-0:46
G----------------------------------|
D----------------------------------|
A---------33333333-----------------|  X3
E-11111111--------55555555-5-5-5---|

  0:47-0:49
G--------------------------------|
D--------------------------------|
A---------33333333---------------|  X1
E-11111111--------333333333333---|

Verse:
  0:50-1:05
G---------------------------------------|
D---------------------------------------|
A---------------------------------------|  X2
E-55555555-55555555-33333333-55555555---|

Chorus:
  1:06-1:15
G----------------------------------|
D----------------------------------|
A---------33333333-----------------|  X3
E-11111111--------55555555-5-5-5---|

  1:16-1:19
G--------------------------------|
D--------------------------------|
A---------33333333---------------|  X1
E-11111111--------333333333333---|

Bridge:
  1:20-1:25
G--------------------------------------|
D-----------------------------7-5------|
A-77777777--33333333-55555555-----7-5--| X2
E--------------------------------------|
  1:26-1:32
G-----------------------------|
D-----------------------------|
A-777-777-77-5-3333-55555555--| X2
E-----------------------------|
  1:32-1:46
G--------------------------------------|
D-----------------------------7-5------|
A-77777777--33333333-55555555-----7-5--| X4
E--------------------------------------|
  1:47-1:50
G-----------------------------|
D-----------------------------|
A-777-777-77-5-3333-55555555--| X2
E-----------------------------|

End:
  1:51-2:03
G-----------------------------------------------|
D-----------------------------------------------|
A-777-777-77-5-3~------5~------7~----------77---|  X1
E-----------------------------------------------|

Thats pretty much it, If you have any corrections or comments email me at Avenged_12@hotmail.com
comments
We did not receive enough feedback on this tab! Please rate:
print report bad tab
1 2 3 4 5
I want to post or [tab]
guest
You may want to rate the tab now too:
select rating
Please do not post tabs as comments. Select "correction" instead!