Oops, an error
Loading. Please wait.

So Sick Of You Tab

version 1
version 1

Intro

Whole song

Interactive

938 views 1 this week
2 commentsread comments
1 2 3 4 5
not so good
x 1
add to favorites
launch autoscroll
font size
0
reset
how to read this tab
guitar tuner
Tab Pro tools
  • play this tab
  • loop segment
  • change instrument
  • show fretboard
  • metronome
Autoscroll
slow
fast
+/-
esc
set tempo
stop
tabbed by: Bung

e/-------------------------------------------------|
b/-------------------------------------------------|
g/-2--5-4-5--2--5-4-5--7-5-4----5-4-5--2-----------|
d/----------------------------5--------------------|
a/-------------------------------------------------|
e/-------------------------------------------------|


 chorus

e/-----------------------------------------------------------|
b/-----------------------------------------------------------|
g/-------5555------------------------------------------------|
d/-3333--5555--5555------------------------------------------|
a/-3333--3333--5555------------------------------------------|
e/-1111--------3333------------------------------------------|
comments
We did not receive enough feedback on this tab! Please rate:
print report bad tab
1 2 3 4 5
2 comments total.
0 reply
ThisIsFreedom?? wrote on April 12 2006, 01:53 pm

i personnally think it's easier to play this way:
e|---------------------------------|
b|---------------------------------|
g|---5-4-5---5-4-5-7-5-4---5-4-5---|
d|-7-------7-------------5-------7-|
a|---------------------------------|
e|---------------------------------|

but still... good job :)

0 reply
nirvana finatic wrote on April 16 2006, 09:02 pm

very nice but i think it goes like this

e|---------------------------------------------------------------------------|
B|---------------------------------------------------------------------------|
G|--2--2/5-4-5-2----2/5-4-5-7-5-4-0----2/5-4-5-2---------------------------------------------------|
D|---------------------------------------------------------------------------|
A|---------------------------------------------------------------------------|
E|---------------------------------------------------------------------------|

I want to post or [tab]
guest
You may want to rate the tab now too:
select rating
Please do not post tabs as comments. Select "correction" instead!