Oops, an error
Loading. Please wait.

So Sick Of You Tab

version 2
version 2

Intro

Whole song

Interactive

1,613 views 1 this week
no commentswrite comment
1 2 3 4 5
excellent!
x 1
add to favorites
launch autoscroll
font size
0
reset
how to read this tab
guitar tuner
Tab Pro tools
  • play this tab
  • loop segment
  • change instrument
  • show fretboard
  • metronome
Autoscroll
slow
fast
+/-
esc
set tempo
stop
Contributor
The Unseen - So Sick Of You

intro 2x
e|-------------------------------------------------|
b|-------------------------------------------------|
g|-2--5-4-5--2---5-4-5--7-5-4----5-4-5--2----------|
d|----------------------------5--------------------|
a|-------------------------------------------------|
e|-------------------------------------------------|

verse 2x
e|-------------------------------------------------|
b|-------------------------------------------------|
g|-4444--545--4444--545-------545--4444-4444-------|
d|-----------------------5555----------------------|
a|-------------------------------------------------|
e|-------------------------------------------------|

chours "I've had it up to here" 3x
e|-------------------------------------------------|
b|-------------------------------------------------|
g|------5555---------------------------------------|
d|3333--5555--7777-7-7-7---------------------------|
a|3333--3333--7777-7-7-7---------------------------|
e|1111--------5555-5-5-5---------------------------|

then "because were so sick of you"
e|-------------------------------------------------|
b|-------------------------------------------------|
g|----5--------------------------------------------|
d|-3--5--5-----------------------------------------|
a|-3--3--5-----------------------------------------|
e|-1-----3-----------------------------------------|

play the verse and chours again

pre-solo 2x
e|-------------------------------------------------|
b|-------------------------------------------------|
g|-9999--5555--77777777----------------------------|
d|-------------------------------------------------|
a|-7777--3333--55555555----------------------------|
e|-------------------------------------------------|

2nd pre solo- outro 2x
e|-------------------------------------------------|
b|-------------------------------------------------|
g|-999-99-9--7--5555-7777--------------------------|
d|-999-99-9--7--5555-5555--------------------------|
a|-777-77-7--5--3333-5555--------------------------|
e|-------------------------------------------------|

solo 4x
e|-------------------------------------------------|
b|-5555-33-8-7--8-7-5-7-5-3------------------------|
g|-------------------------------------------------|
d|-------------------------------------------------|
a|-------------------------------------------------|
e|-------------------------------------------------|

outro
e|-------------------------------------------------|
b|-------------------------------------------------|
g|-999-99-9--7--5555-7777--------------------------|
d|-999-99-9--7--5555-5555--------------------------|
a|-777-77-7--5--3333-5555--------------------------|
e|-------------------------------------------------|

e|-------------------------------------------------|
b|-------------------------------------------------|
g|-999-99-9--7--5--7--9----------------------------|
d|-999-99-9--7--5--5--9----------------------------|
a|-777-77-7--5--3--5--7----------------------------|
e|-------------------------------------------------|
comments
We did not receive enough feedback on this tab! Please rate:
print report bad tab
1 2 3 4 5
I want to post or [tab]
guest
You may want to rate the tab now too:
select rating
Please do not post tabs as comments. Select "correction" instead!