Oops, an error
Loading. Please wait.

So This Is Freedom Tab

508 views 3 this week
no commentswrite comment
1 2 3 4 5
please rate
add to favorites
launch autoscroll
font size
0
reset
how to read this tab
guitar tuner
Tab Pro tools
  • play this tab
  • loop segment
  • change instrument
  • show fretboard
  • metronome
×
Best way to learn
"So This Is Freedom"
Autoscroll
slow
fast
+/-
esc
set tempo
stop
Contributor
Artist:  The Unseen
Album:  So This is Freedom?
Tabbed by:  Rick (RCGoalie1@aol.com)
AIM:  rickrack97

This is a really good album.  I've already done some of the songs on it, but I
figured that I would do it all at once.  I didn't do any of the solos because I
can't figure them out, sorry.  Also, don't assume that the timing that I have is
correct because it's probably not.  Listen to the song for the correct timing. 
Rate this for me will you?


Songs:
I.    What Are You Gonna Do
II.   Are We Dead Yet?
III.  Stand Up and Fight
IV.   Punks Attack
V.    Dead and Gone
VI.   There's Still Hope
VII.  Greed is a Disease
VIII. Piss Off
IX.   Don't Be Fooled
X.    Cultural Genocide
XI.   Sent to Die
XII.  Tradition
XIII. So This is Feedom?
XIV.  Beat It


I.  What Are You Gonna Do

Intro/Chorus:

E|---------------------------------------------------|
B|---------------------------------------------------|
G|--------4-4--4-5-5--5-4-4--4-7-7-7-7-7-5-5-5-5-5---|
D|-2-2--2-4-4--4-5-5--5-4-4--4-7-7-7-7-7-5-5-5-5-5---|
A|-2-2--2-2-2--2-3-3--3-2-2--2-5-5-5-5-5-3-3-3-3-3---|
E|-0-0--0--------------------------------------------|

Verse:  This is as close as I can get

E|-----------------------------------------------------|
B|-----------------------------------------------------|
G|-9-------------------------9------------------12-11--|
D|-9-a bunch of times, then--9-a bunch of times-12-11--|
A|-7-------------------------7------------------10--9--|
E|-----------------------------------------------------|

Bridge:

E|------------------------------------------|
B|------------------------------------------|
G|-------------5----------------------------|
D|-2-----5-----5---5--2-2-2-2-2-2-2-2-2-2---|
A|-2-----5-----3---5--2-2-2-2-2-2-2-2-2-2---|
E|-0-----3---------3--0-0-0-0-0-0-0-0-0-0---|
                        |---------------|
                            palm mute
continued:
E|-------------------------------------------------------------------|
B|-------------------------------------------------------------------|
G|----------------------------------5-5-5-5--------------------------|
D|--2-2-2-2-2-2-2-2-5-5-5-5-5-5-5-5-5-5-5-5-5-5-5-5-2-2-2-2-2-2-2-2--|
A|--2-2-2-2-2-2-2-2-5-5-5-5-5-5-5-5-3-3-3-3-5-5-5-5-2-2-2-2-2-2-2-2--|
E|--0-0-0-0-0-0-0-0-3-3-3-3-3-3-3-3---------3-3-3-3-0-0-0-0-0-0-0-0--|

Ending:

E|-----------------------------------|
B|-----------------------------------|
G|-----------------------------------|
D|--2---2---2------------------------|
A|--2---2---2-let the last one ring--|
E|--0---0---0------------------------|



II.  Are We Dead Yet?

Intro/Chorus:

E|--------------------------|
B|--------------------------|
G|-9-9-9--------------------|
D|-9-9-9-6-6-6-7-7-7-9-9-9--|
A|-7-7-7-6-6-6-7-7-7-9-9-9--|
E|-------4-4-4-5-5-5-7-7-7--|

Verse:

E|------------------------------------------------------------------|
B|------------------------------------------------------------------|
G|-9-9-9-9-9-9-9-9--------------------------------------------------|
D|-9-9-9-9-9-9-9-9-9-9-9-9-9-9-9-9-7-7-7-7-7-7-7-7-7-7-7-7-7-7-7-7--|
A|-7-7-7-7-7-7-7-7-9-9-9-9-9-9-9-9-7-7-7-7-7-7-7-7-7-7-7-7-7-7-7-7--|
E|-----------------7-7-7-7-7-7-7-7-5-5-5-5-5-5-5-5-5-5-5-5-5-5-5-5--|

Bridge:

E|----------------------------------------------------------------------------|
B|----------------------------------------------------------------------------|
G|--------------------------------------------------------9-9-9-9-9-9-9-9-9-9-|
D|-7-7-7-7-7-7--9-9---7-7-7-7-7-7--9-9---7-7-7-7-7-7--9-9-9-9-9-9-9-9-9-9-9-9-|
A|-7-7-7-7-7-7--9-9---7-7-7-7-7-7--9-9---7-7-7-7-7-7--9-9-7-7-7-7-7-7-7-7-7-7-|
E|-5-5-5-5-5-5--7-7---5-5-5-5-5-5--7-7---5-5-5-5-5-5--7-7---------------------|



III.  Stand Up and Fight

Intro:

E|------------------------------------------------|
B|------------------------------------------------|
G|-8------8------8-8-8-8-8-8-8-8-8-8-8-8-8-8-8-8--|
D|-8------8------8-8-8-8-8-8-8-8-8-8-8-8-8-8-8-8--|  
A|-6------6------6-6-6-6-6-6-6-6-6-6-6-6-6-6-6-6--| 
E|------------------------------------------------|

Verse:

E|---------------------------------|
B|---------------------------------|
G|-8-8--8---------11-11--11--8-8---|
D|-8-8--8-8-8--8--11-11--11--8-8---|
A|-6-6--6-8-8--8---9--9---9--6-6---|
E|--------6-6--6-------------------|

Chorus:

E|-------------------------------------------------------------|
B|-------------------------------------------------------------|
G|-7-7--7-9-9--9--11-11---11-12-12---7-7--7-9-9--9-5-5--5-7-7--|
D|-7-7--7-9-9--9--11-11---11-12-12---7-7--7-9-9--9-5-5--5-7-7--|
A|-5-5--5-7-7--7---9--9----9-10-10---5-5--5-7-7--7-3-3--3-5-5--|
E|-------------------------------------------------------------|

Bridge:

E|---------------------------------------------------------------------------|
B|---------------------------------------------------------------------------|
G|-9-9-9-9-9-9-9-9--5-5-5-5-5-5-5-5--7-7-7-7-7-7-7-7---7-7-12-11-------------|
D|-9-9-9-9-9-9-9-9--5-5-5-5-5-5-5-5--7-7-7-7-7-7-7-7---7-7-12-11-------------|
A|-7-7-7-7-7-7-7-7--3-3-3-3-3-3-3-3--5-5-5-5-5-5-5-5---5-5-10--9-------------|
E|---------------------------------------------------------------------------|



IV.  Punks Attack

Intro/Chorus:

E|---------------------------------------------------------------------------|
B|---------------------------------------------------------------------------|
G|-10-10--10-10-10-10--12-12-12-12-12-12--5-5--5-5-5-5-----------------------|
D|-10-10--10-10-10-10--12-12-12-12-12-12--5-5--5-5-5-5-3-3-3-3-3-3-----------|
A|--8--8---8--8--8--8--10-10-10-10-10-10--3-3--3-3-3-3-3-3-3-3-3-3-----------|
E|-----------------------------------------------------1-1-1-1-1-1-----------|
continued:
E|-----------------------------------------x-x-x-x---------------------------|
B|-----------------------------------------x-x-x-x---------------------------|
G|-10-10--10-10-10-10--12-12-12-12-12-12--5x5x5x5x5-5-5-5--------------------|
D|-10-10--10-10-10-10--12-12-12-12-12-12--5x5x5x5x3-5-5-5--------------------|
A|--8--8---8--8--8--8--10-10-10-10-10-10--3x3x3x3x3-3-3-3--------------------|
E|-----------------------------------------x-x-x-x---------------------------|

Verse: the exact timing is not shown

E|---------------------------------------------------------------------------|
B|---------------------------------------------------------------------------|
G|-5-5-5-5-5-5-5-5-5-5-5-5-5-5-5-5-5-----------------------------------------|
D|-5-5-5-5-5-5-5-5-5-5-5-5-5-5-5-5-5--7-7-7-7-7-7-5-5-5-5-5-5----------------|
A|-3-3-3-3-3-3-3-3-3-3-3-3-3-3-3-3-3--7-7-7-7-7-7-5-5-5-5-5-5----------------|
E|------------------------------------5-5-5-5-5-5-3-3-3-3-3-3----------------|
     |-----------------------------|
               palm mute

Bridge:

E|---------------------------------------------------------------------------|
B|---------------------------------------------------------------------------|
G|--5-4-2--------------5-5-5-5-5-5-5-5-5-5-5-5-5-5-5-5-----------------------|
D|--5-4-2-5-3-----5----5-5-5-5-5-5-5-5-5-5-5-5-5-5-5-5--5-5-3-3-3-3-3-3------|
A|--3-2-0-5-3-----5----3-3-3-3-3-3-3-3-3-3-3-3-3-3-3-3--5-5-3-3-3-3-3-3------|
E|--------3-1-----3-------------------------------------3-3-1-1-1-1-1-1------|



V.  Dead and Gone

Intro:

E|---------------------------------------------------------------------------|
B|---------------------------------------------------------------------------|
G|---------------------------------------------------------------------------|
D|--7-------7-------7-------7------------------------------------------------|
A|--7-------7-------7-------7------------------------------------------------|
E|--5-------5-------5-------5--do a pick scrape and then go to the verse-----|

Verse:

E|----------------------------------------------|
B|----------------------------------------------|
G|---------10-10-10-10-------------12-12-12-12--|
D|-7-7-7-7-10-10-10-10-10-10-10-10-12-12-12-12--|
A|-7-7-7-7--8--8--8--8-10-10-10-10-10-10-10-10--|
E|-5-5-5-5--------------8--8--8--8--------------|

Chorus:

E|---------------------------------|
B|---------------------------------|
G|---------------------------------|
D|-2-2-2-2-7-7-7-7-5-5-5-5-9-10-9--|
A|-2-2-2-2-7-7-7-7-5-5-5-5-9-10-9--|
E|-0-0-0-0-5-5-5-5-3-3-3-3-7--8-7--|

Bridge:

E|------------------------------------------|
B|------------------------------------------|
G|------------------------------------------|
D|-9--9-9-9-9-9-9--10-10-10-10-12-12-12-12--|
A|-9--9-9-9-9-9-9--10-10-10-10-12-12-12-12--|
E|-7--7-7-7-7-7-7---8--8--8--8-10-10-10-10--|
      |---------|
       palm mute
continued:

E|---------------------------------------------------------------------------|
B|---------------------------------------------------------------------------|
G|-------------------5-------------------------------------------------------|
D|--7-------2--------5---------9-9-9-9-9-9-9-10-10-10-10-12-12-12-12---------|
A|--7-------2--------3---------9-9-9-9-9-9-9-10-10-10-10-12-12-12-12---------|
E|--5-------0------------------7-7-7-7-7-7-7--8--8--8--8-10-10-10-10---------|



VI.  There's Still Hope

Intro:

Guitar 1:  This is also the verse
E|----------------------------------------------------------|
B|----------------------------------------------------------|
G|----------------------------------------------------------|
D|--9-9-7-9-9-7-9-9-7-9-9-7-10-10-7-10-10-7-10-10--7-10-10--|
A|--9-9-7-9-9-7-9-9-7-9-9-7-10-10-7-10-10-7-10-10--7-10-10--|
E|--7-7-5-7-7-5-7-7-5-7-7-5--8--8-5--8--8-5--8--8--5--8--8--|

Guitar 2:
E|--------------|
B|--------------|
G|--8--7--5--4--|
D|--8--7--5--4--|
A|--6--5--3--2--|
E|--------------|

Chorus:

E|---------------------------------------------------------------------------|
B|---------------------------------------------------------------------------|
G|--7-7--7-----------------------------------------9-9-9---------------------|
D|--7-7--7-2-2--2-4-4--4-4-4--5-5--5-4-4--4-2-2--2-9-9-9---------------------|
A|--5-5--5-2-2--2-4-4--4-4-4--5-5--5-4-4--4-2-2--2-7-7-7---------------------|
E|---------0-0--0-2-2--2-2-2--3-3--3-2-2--2-0-0--0---------------------------|

Bridge:

E|---------------------------------------------------------------------------|
B|---------------------------------------------------------------------------|
G|-7----------7-7-7-7-7-7-7-7-10-10-10-10-10-10-10-10-12-12-12-12-12-12-12-12|
D|-7-let ring-7-7-7-7-7-7-7-7-10-10-10-10-10-10-10-10-12-12-12-12-12-12-12-12|
A|-5----------5-5-5-5-5-5-5-5--8--8--8--8--8--8--8--8-10-10-10-10-10-10-10-10|
E|---------------------------------------------------------------------------|

During the bridge there's this little riff.  It's palm muted.

E|-----------------------------------|
B|-----------------------------------|
G|----------7-7-------------7-7------|
D|------7-7-----7-7-----7-7-----7-7--|
A|--5-5-------------5-5--------------|
E|-----------------------------------|

Then comes this part:

E|--------------------------------------------|
B|--------------------------------------------|
G|--7-7-7-7--9-9-9-9-10-10-10-10-12-12-12-12--|
D|--7-7-7-7--9-9-9-9-10-10-10-10-12-12-12-12--|
A|--5-5-5-5--7-7-7-7--8--8--8--8-10-10-10-10--|
E|--------------------------------------------|



VII.  Greed is a Disease

Intro/Chorus:

E|---------------------------|
B|---------------------------|
G|---------5-7-5-------------|
D|--7-7--7-5-7-5-5-5--5-3-3--|
A|--7-7--7-3-5-3-5-5--5-3-3--|
E|--5-5--5-------3-3--3-1-1--|

Verse:

E|----------------------------------|
B|----------------------------------|
G|---------4-4-4-4------------------|
D|-2-2-2-2-4-4-4-4-5-5-5-5-4-4-4-4--|
A|-2-2-2-2-2-2-2-2-5-5-5-5-4-4-4-4--|
E|-0-0-0-0---------3-3-3-3-2-2-2-2--|



VIII.  Piss Off

Intro:

Guitar 1:
E|---------------------------------------------------------------------------|
B|---------------------------------------------------------------------------|
G|---7--9------------7-9------------7-9-9-9-9-9-9-9-9-9-9-9-9-9--------------|
D|---------------------------------------------------------------------------|
A|---------------------------------------------------------------------------|
E|---------------------------------------------------------------------------|

Guitar 2: this is palm muted
E|---------------------------------------------------------------------------|
B|---------------------------------------------------------------------------|
G|--9-9-9-9-10-10-10-10-7-7-7-7-7-7-7-7-9-9-9-9-10-10-10-10-7-7-7-7-7-7-7-7--|
D|--9-9-9-9-10-10-10-10-7-7-7-7-7-7-7-7-9-9-9-9-10-10-10-10-7-7-7-7-7-7-7-7--|
A|--7-7-7-7--8--8--8--8-5-5-5-5-5-5-5-5-7-7-7-7--8--8--8--8-5-5-5-5-5-5-5-5--|
E|---------------------------------------------------------------------------|

Intro 2:

Guitar 1:
E|------------------------------------------------------------------|
B|------------------------------------------------------------------|
G|---9-9-9-11-12-11--7-7-7-11-12-11--9-9-9-11-12-11-7-7-7-11-12-11--|
D|------------------------------------------------------------------|
A|------------------------------------------------------------------|
E|------------------------------------------------------------------|

Guitar 2:  Same as other intro but not palm muted.  This is also the verse.

Chorus:

E|-------------------------------------------|
B|-------------------------------------------|
G|-------7-7-------7-6--------7-7-----7-6----|
D|--9-9--7-7--9-9--7-6-7--9-9-7-7-9-9-7-6-7--|
A|--9-9--5-5--9-9--5-4-7--9-9-5-5-9-9-5-4-7--|
E|--7-7-------7-7------5--7-7-----7-7-----5--|

Bridge:

E|---------------------------------------------------------------------------|
B|--------------5-5-5-5-6-6-6-6-----------------5-5-5-5-6-6-6-6--------------|
G|------------------------------7-7-7-7-7-7-7-7-----------------7-7-7-7-7-7-7|
D|-9-------------------------------------------------------------------------|
A|-9-let ring----------------------------------------------------------------|
E|-7-------------------------------------------------------------------------|



IX.  Don't Be Fooled

Intro:

E|---------------------------------------------------------------------------|
B|---------------------------------------------------------------------------|
G|11-11---------11-11---------while guitar 1 does the-/12, guitar 2 does-----|
D|11-11---------11-11-----------------------a pick slide---------------------|
A|-9--9----------9--9--------------------------------------------------------|
E|-------/12-----------/12---------------------------------------------------|

Verse:

E|------------------------------------------------------------------|
B|------------------------------------------------------------------|
G|-11-11---11-7-7---7-9-9---9-6-6--6-7-7--9-9-9---9-11--11--11--11--|
D|-11-11---11-7-7---7-9-9---9-6-6--6-7-7--7-9-9---9-11--11--11--11--|
A|--9--9----9-5-5---5-7-7---7-4-4--4-5-5--5-7-7---7--9---9---9---9--|
E|------------------------------------------------------------------|

I don't know the lead part over the chorus, but here is the little riff
right after the chorus:

E|-------------------------------------------------------------------|
B|--7-7-7-7-----------------------------------------7-7-7-7-7-7-7-7--|
G|----------7-7-7-7-9-9-9-9-6-6-6-6-7-7-7-7-9-9-9-9------------------|
D|-------------------------------------------------------------------|
A|-------------------------------------------------------------------|
E|-------------------------------------------------------------------|



X.Cultural Genocide

Intro/Verse:

E|------------------------------------------------------------------|
B|------------------------------------------------------------------|
G|-6-6-6-6-6-6-6-6-9-9-9-9-9-9-9-9----------------------------------|
D|-6-6-6-6-6-6-6-6-9-9-9-9-9-9-9-9-9-9-9-9-9-9-9-9-4-4-4-4-4-4-4-4--|
A|-4-4-4-4-4-4-4-4-7-7-7-7-7-7-7-7-9-9-9-9-9-9-9-9-4-4-4-4-4-4-4-4--|
E|---------------------------------7-7-7-7-7-7-7-7-2-2-2-2-2-2-2-2--|

Chorus:

E|----------------------------------------------|
B|----------------------------------------------|
G|-9-9-9-9-9-9-9-9-11-11-11-11--11--11--11--11--|
D|-9-9-9-9-9-9-9-9-11-11-11-11--11--11--11--11--|
A|-7-7-7-7-7-7-7-7--9--9--9--9---9---9---9---9--|
E|----------------------------------------------|

Bridge:

E|--------------------------------------------------------|
B|-------9-7-9-------9-7-9-------10-12-10-------10-12-10--|
G|-6-6-6-------6-6-6-------9-9-9----------9-9-9-----------|
D|--------------------------------------------------------|
A|--------------------------------------------------------|
E|--------------------------------------------------------|
continued:
E|---------------------------------------------------|
B|-------7-5-7-------7-5-7---------------------------|
G|-4-4-4-------4-4-4--------------6-4-6-------6-4-6--|
D|--------------------------4-4-4-------4-4-4--------|
A|---------------------------------------------------|
E|---------------------------------------------------|



XI.  Sent to Die

Intro/Verse:

E|----------------------------------------------------|
B|----------------------------------------------------|
G|-------------------------------------7------7-------|
D|-5-5-5-5-5-5-5-5-5-5-5-5-5-5-5-5-5---7-7-7--7--7-7--|
A|-5-5-5-5-5-5-5-5-5-5-5-5-5-5-5-5-5---5-7-7--5--7-7--|
E|-3-3-3-3-3-3-3-3-3-3-3-3-3-3-3-3-3-----5-5-----5-5--|
     |-----------------------------|
               palm mute
continued:
E|--------------------------------------------------|
B|--------------------------------------------------|
G|--------------------------------------------------|
D|-5-5-5-5-5-5-5-5-5-5-5-5-5-5-5-5-5---9-7-7-9-7-9--|
A|-5-5-5-5-5-5-5-5-5-5-5-5-5-5-5-5-5---9-7-7-9-7-9--|
E|-3-3-3-3-3-3-3-3-3-3-3-3-3-3-3-3-3---7-5-5-7-5-7--|
     |-----------------------------|
               palm mute

For the verse play the intro with no palm muting.

Chorus:

E|------------------------------------------------------------|
B|------------------------------------------------------------|
G|-7-5-5--7-5-5-----------------7-5-5--7-5-5------------------|
D|-7-5-5--7-5-5-5-5-5-5-3-3-3-3-7-5-5--7-5-5-5-5-5-5-3-3-3-3--|
A|-5-3-3--5-3-3-5-5-5-5-3-3-3-3-5-3-3--5-3-3-5-5-5-5-3-3-3-3--|
E|--------------3-3-3-3-1-1-1-1--------------3-3-3-3-1-1-1-1--|

Ending:

E|---------------------------------------------------------------------------|
B|---------------------------------------------------------------------------|
G|---------------------------------------------------------------------------|
D|-5-----5-5-5--5------5-5-5--5------5-5-5--5------5-5-5--5------------------|
A|-5-----5-5-5--5------5-5-5--5------5-5-5--5------5-5-5--5------------------|
E|-3-----3-3-3--3------3-3-3--3------3-3-3--3------3-3-3--3------------------|
         |---|         |---|         |---|         |---|
       palm mute



XII.  Tradition

Intro:  This is as close as I could get

E|------------------------------------------------------------|
B|------------------------------------------------------------|
G|-------------------------5-5-4------------------------------|
D|------------------------------------------------------------|
A|-5-7-7--5-7-7--5-7-7--5---------7-7--5-7-7--5-7-7--5-3-2-0--|
E|------------------------------------------------------------|

Verse:

E|--------------------------|
B|--------------------------|
G|-9-9-9-7-6---5-5-5-5-4-2--|
D|-9-9-9-7-6-7-5-5-5-5-4-2--|
A|-7-7-7-5-4-7-3-3-3-3-2-0--|
E|-----------5--------------|

Chorus:

E|------------------------------------------------------------------|
B|------------------------------------------------------------------|
G|---------6-6-6-6-------------------------6-6-6-6------------------|
D|-2-2-2-2-6-6-6-6-7-7-7-7-9-9-9-9-2-2-2-2-6-6-6-6-7-7-7-7-9-9-9-9--|
A|-2-2-2-2-4-4-4-4-7-7-7-7-9-9-9-9-2-2-2-2-4-4-4-4-7-7-7-7-9-9-9-9--|
E|-0-0-0-0---------5-5-5-5-7-7-7-7-0-0-0-0---------5-5-5-5-7-7-7-7--|

Bridge:

E|---------------------------------------------------------------------------|
B|---------------------------------------------------------------------------|
G|-9-9-9-9-9-9-9--9-9-9-9-9-9-9--12-12-12-12-12-12-12--7-7-7-7-7-7-7---------|
D|-9-9-9-9-9-9-9--9-9-9-9-9-9-9--12-12-12-12-12-12-12--7-7-7-7-7-7-7---------|
A|-7-7-7-7-7-7-7--7-7-7-7-7-7-7--10-10-10-10-10-10-10--5-5-5-5-5-5-5---------|
E|---------------------------------------------------------------------------|
     |---------|    |---------|     |---------------|    |---------|
     palm mute

For the part after the bridge, play the same thing with no palm muting.

Ending:

E|---------------------------------------------------------------------------|
B|---------------------------------------------------------------------------|
G|---------------------------------------------------------------------------|
D|-2-2-2-6-6-6-7-7-7--6-4-4--------------2-2-2-6-6-6-7-7-7---7-6-4-2---------|
A|-2-2-2-6-6-6-7-7-7--6-4-4-play this a--2-2-2-6-6-6-7-7-7---7-6-4-2---------|
E|-0-0-0-4-4-4-5-5-5--4-2-2---few times--0-0-0-4-4-4-5-5-5---5-4-2-0---------|



XIII.  So This is Freedom?

Intro:  This is as close as I could get.

E|---------------------------------------------------------------------------|
B|-----------------------------------------10-10-10-10---10-10-10-10---------|
G|---9-----9---9-----9-9-9-9-9-9-9-9-9-9-9-------------9-------------9-------|
D|---------------------------------------------------------------------------|
A|-7---7-7---7---7-7---------------------------------------------------------|
E|---------------------------------------------------------------------------|

Verse:

E|--------------------------------------------------|
B|--------------------------------------------------|
G|-------------------------5-5-5-5-5-5-4-4-4-4-4-4--|
D|-4-4-4-4-4-4-2-2-2-2-2-2-5-5-5-5-5-5-4-4-4-4-4-4--|
A|-4-4-4-4-4-4-2-2-2-2-2-2-3-3-3-3-3-3-2-2-2-2-2-2--|
E|-2-2-2-2-2-2-0-0-0-0-0-0--------------------------|

Chorus:

E|------------------------------------------------------------------|
B|------------------------------------------------------------------|
G|-----------------9-9-9-9-9-9-9-9-----------------9-9-9-9-9-9-9-9--|
D|-2-2-2-2-7-7-7-7-9-9-9-9-9-9-9-9-2-2-2-2-7-7-7-7-9-9-9-9-9-9-9-9--|
A|-2-2-2-2-7-7-7-7-7-7-7-7-7-7-7-7-2-2-2-2-7-7-7-7-7-7-7-7-7-7-7-7--|
E|-0-0-0-0-5-5-5-5-----------------0-0-0-0-5-5-5-5------------------|

Bridge:

E|--------------------------------------------|
B|--------------------------------------------|
G|-------------------9-------9------9------9--|
D|-2-let it ring-----9-------9------9------9--|
A|-2-and then palm---7-------7------7------7--|
E|-0-mute it a lot----------------------------|



XIV.  Beat It

Intro:

E|--------------------|
B|--------------------|
G|-12-12/9-9\12-12/7--|
D|-12-12/9-9\12-12/7--|
A|-10-10/7-7\10-10/5--|
E|--------------------|

Chorus:

E|-------------------------------------------|
B|-------------------------------------------|
G|-------------------------------------------|
D|-------5-2--2-4-2-0-0--------5-2--2-4-2-0--|
A|-----2---------------------2---------------|
E|-0-3-------------------0-3-----------------|

Verse:

E|---------------------------------------------------------------------------|
B|---------------------------------------------------------------------------|
G|-9-9--9---7-7--7---9-9--9---7-7--7---5-5--5---7-7--7---9-9--9---7-7--7-----|
D|-9-9--9---7-7--7---9-9--9---7-7--7---5-5--5---7-7--7---9-9--9---7-7--7-----|
A|-7-7--7---5-5--5---7-7--7---5-5--5---3-3--3---5-5--5---7-7--7---5-5--5-----|
E|---------------------------------------------------------------------------|


That's all.  I know that I didn't tab out every little thing, but I did my best,
and I think that I did a damn good job.  Anyway, if you have any questions, feel
free to email me.
comments
We did not receive enough feedback on this tab! Please rate:
print report bad tab
1 2 3 4 5
I want to post or [tab]
guest
You may want to rate the tab now too:
select rating
Please do not post tabs as comments. Select "correction" instead!