Oops, an error
Loading. Please wait.

Social Damage Bass Tab

381 views 1 this week
no commentswrite comment
1 2 3 4 5
please rate
add to favorites
launch autoscroll
font size
0
reset
guitar tuner
Tab Pro tools
  • play this tab
  • loop segment
  • change instrument
  • show fretboard
  • metronome
×
Best way to learn
"Social Damage"
Autoscroll
slow
fast
+/-
esc
set tempo
stop
Very cool and easy song. XD

Intro:
G----------------------------------------------------------------------|
D----------------------------------------------------------------------|
A----------------------------------------------------------------------|(X2)
E-2-2----5-5----0-0----0~----------------------------------------------|


Intro part 2:
G----------------------------------------------------------------------|
D----------------------------------------------------------------------|
A----------------------------------------------------------------------|(X2)
E-2-2-222-5-55-555-0-00-0000-/9-975------------------------------------|

Verse:
G----------------------------------------------------------------------|
D----------------------------------------------------------------------|
A---------5-55-555--------------------------5-55-555---------------5---|
E-2-2-222----------5-55-5555-55-5-4-2-2-222----------5-55-5555-XXXX----|

G-----------------------------------------------------------------------|
D-----------------------------------------------------------------------|
A---------5-55-555--------------------------5-55-555--------------------|
E-2-2-222----------5-55-5555-55-5-4-2-2-222----------5-55-5555-55555555-|

Chorus:
G----------------------------------------------------------------------|
D----------------------------------------------------------------------|
A--------------5-55-7-7------------------------------------------------|(X4)
E-7-777-5-7-77----------5-55-555---------------------------------------|

Intro part 2 (X2)
Whole Verse (X1)
Chorus (X4)

Interlude:
G----------------------------------------------------------------------|
D----------------------------------------------------------------------|
A----------------------------------------------------------------------|(X2)
E-222-222-222-222/141414-141414-141414-141414/-------------------------|

Intro part 2 (X4)
Chorus(X4)
Interlude(X1)

End on:
G-----------|
D-----------|
A-----------|
E-2---------|

I hope it´s 100% correct.
if you have some corrections, e-mail me: rapha_millencolin@hotmail.com
thanks!
comments
We did not receive enough feedback on this tab! Please rate:
print report bad tab
1 2 3 4 5
I want to post or [tab]
guest
You may want to rate the tab now too:
select rating
Please do not post tabs as comments. Select "correction" instead!