Oops, an error
Loading. Please wait.

Torn And Shattered Nothing Left Tab

58 views 1 this week
no commentswrite comment
1 2 3 4 5
please rate
add to favorites
launch autoscroll
font size
0
reset
how to read this tab
guitar tuner
Tab Pro tools
  • play this tab
  • loop segment
  • change instrument
  • show fretboard
  • metronome
×
Best way to learn
"Torn And Shattered Nothing Left"
Autoscroll
slow
fast
+/-
esc
set tempo
stop
Contributor
Difficulty
novice
Torn and Shattered (Nothing Left)
The Unseen
Internal Salvation (2007)

intro

lead
E|----------------------------------------------------------|
B|----------------------------------------------------------|
G|--1111/9/1111/9/1111/9/1111/9/1111/9/1111/9/1111/121212---|
D|--xxxxxxxxxxxxxxxxxxxxxxxxxxxxxxxxxxxxxxxxxxxxxxxxxxxxx---|
A|--9999/7/9999/7/9999/7/9999/7/9999/7/9999/7/9999/101010---|
E|----------------------------------------------------------|
P.M rhythm -..-/-..-/ (normal p.m p.m normal slide) Listen to the song and you will see it

E|----------------------------------------------------------|
B|----------------------------------------------------------|
G|-9/11/9/7/9—-9/11/9/12/11/9--9/11/9/7/9-------------------|
D|-x-xx-x-x-x--x-xx-x-xx-x--x--x-xx-x-x-x -4-4-4444-5-5-5555|
A|-7/99/7/5/7--7/99/7/10/9-/7--7/99/7/5/7--4-4-4444-5-5-5555|
E|-----------------------------------------2-2-2222-3-3-3333|

Rhythm  part (intro)
E|------------------------------------------------------------------------|
B|---------------------------------------------------x2,2nd without pm----|
G|----------77777777----------77777777----------77777777------------------|
D|-99999999-77777777-55555555-77777777-77777777-77777777-4-4-4444-5-5-5555|
A|-99999999-55555555-55555555-55555555-77777777-55555555-4-4-4444-5-5-5555|
E|-77777777----------33333333----------55555555----------2-2-2222-3-3-3333|
P.M.....................................................

Verse
Lead and rhythm
E|----------------------------------------------------------|
B|----------------------------------------------------------|
G|----------------------------------------------------------|
D|--99999999-55555555-77777777-44444444-99999999-77777777---|
A|--99999999-55555555-77777777-44444444-99999999-77777777---|
E|--77777777-33333333-55555555-22222222-77777777-55555555---|
    -..-..-. -..-..-. -..-..-. -..-..-. -..-.-. -..-..-.
rhthym continued
E|----------------------------------------------------------|
B|----------------------------------------------------------|
G|----------------------------------------------------------|
D|--55555555555555555---------------------------------------|
A|--55555555555555555---------------------------------------|
E|--33333333333333333---------------------------------------|

lead continued
E|----------------------------------------------------------|
B|----------------------------------------------------------|
G|--12121212-12/11/9/11-------------------------------------|
D|--xxxxxxxx-x—x---x-x--------------------------------------|
A|--10101010-10/9-/7/9--------------------------------------|
E|----------------------------------------------------------|
Repeat verse

Chorus x2
Lead
E|----------------------------------------------------------|
B|----------------------------------------------------------|
G|-9/11/9/7/9—-9/11/9/12/11/9--9/11/9/7/9-------------------|
D|-x-xx-x-x-x--x-xx-x-xx-x--x--x-xx-x-x-x -4-4-4444-5-5-5555|
A|-7/99/7/5/7--7/99/7/10/9-/7--7/99/7/5/7--4-4-4444-5-5-5555|
E|-----------------------------------------2-2-2222-3-3-3333|
Rhythm
E|------------------------------------------------------------------------|
B|------------------------------------------------------------------- ----|
G|----------77777777----------77777777----------77777777------------------|
D|-99999999-77777777-55555555-77777777-77777777-77777777-4-4-4444-5-5-5555|
A|-99999999-55555555-55555555-55555555-77777777-55555555-4-4-4444-5-5-5555|
E|-77777777----------33333333----------55555555----------2-2-2222-3-3-3333|

Fill in
lead
E|----------------------------------------------------------|
B|----------------------------------------------------------|
G|--1111/9/1111/9/1111/9/1111/9/1111/9/1111/9/1111/121212---|
D|----------------------------------------------------------|
A|----------------------------------------------------------|
E|----------------------------------------------------------| p.m rhythm

Rhythm
E|--------------------------------------------------------------------------|
B|--------------------------------------------------------------------------|
G|----------77777777----------77777777----------77777777-111112121212-------|
D|-99999999-77777777-55555555-77777777-77777777-77777777-xxxxxxxxxxxx-------|
A|-99999999-55555555-55555555-55555555-77777777-55555555-9-9-10101010-------|
E|-77777777----------33333333----------55555555-----------------------------|
P.M..................................................... then pickslide

Verse
Lead and rhythm
E|----------------------------------------------------------|
B|----------------------------------------------------------|
G|----------------------------------------------------------|
D|--99999999-55555555-77777777-44444444-99999999-77777777---|
A|--99999999-55555555-77777777-44444444-99999999-77777777---|
E|--77777777-33333333-55555555-22222222-77777777-55555555---|
    -..-..-. -..-..-. -..-..-. -..-..-. -..-.-. -..-..-.
rhthym
E|----------------------------------------------------------|
B|----------------------------------------------------------|
G|----------------------------------------------------------|
D|--55555555555555555---------------------------------------|
A|--55555555555555555---------------------------------------|
E|--33333333333333333---------------------------------------|

lead
E|----------------------------------------------------------|
B|----------------------------------------------------------|
G|--12121212-12/11/9/11-------------------------------------|
D|--xxxxxxxx-x—x---x-x--------------------------------------|
A|--10101010-10/9-/7/9--------------------------------------|
E|----------------------------------------------------------|
Repeat verse

Repeat the chorus x2

Bridge
E|----------------------------------------------------------|
B|----------------------------------------------------------|
G|-9999-11/12121212-1212121211111199------------------------|
D|-xxxx--xxxxxxxxxx-xxxxxxxxxxxxxxxx------------------------|
A|-7777--9/10101010-10101010-9-9-977------------------------|
E|----------------------------------------------------------|

E|--------------------------------------------------------------------------|
B|--------------------------------------------------------------------------|
G|-9999-11/12121212-—12121212121212-1414-16161616-14-16-1717171717-14-161616|
D|-xxxx--x-xxxxxxxx--xxxxxxxxxxxxxx-xxxx-xxxxxxxx-xx-xx-xxxxxxxxxx-xx-xxxxxx|
A|-7777--9/10101010--10101010101010-1212-14141414-12-14-1515151515-12-141414|
E|--------------------------------------------------------------------------|

E|----------------------------------------------------------|
B|----------------------------------------------------------|
G|-1616-1414-12-—16161616-14-16-17171717-14-16-16-16-16-----|
D|-xxxx-xxxx-xx--xxxxxxxx-xx-xx-xxxxxxxx-xx-xx-xx-xx-xx-----|
A|-1414-1212-10--14141414-12-14-15151515-12-14-14-14-14-----|
E|----------------------------------------------------------|

The other guitar does exactly the same but just playing the G string and trying to do 
pinch harmonics, and instead of ending on 14x16 it ends on:
E|-3-3-3-3-|
B|-5-5-5-5-|

Repeat the chorus x2, but the 2nd, end the song slowly as this tab:
Rythym guitar                        lead guitar
E|----------------------------------|-----------------------------------|
B|----------------------------------|-----------------------------------|
G|-------------------4--------------|-13-13-13-13-13-14-14-14-14---13---|
D|-4-44-4-5-55-5-5-5-4--------------|-xx-xx-xx-xx-xx-xx-xx-xx-xx---xx---|
A|-4-44-4-5-55-5-5-5-2--------------|-11-11-11-11-11-12-12-12-12---11---|
E|-2-22-2-3-33-3-3-3----------------|-----------------------------------|
     ..     ..
comments
We did not receive enough feedback on this tab! Please rate:
print report bad tab
1 2 3 4 5
I want to post or [tab]
guest
You may want to rate the tab now too:
select rating
Please do not post tabs as comments. Select "correction" instead!