Oops, an error
Loading. Please wait.

Waste Of Time Bass Tab

version 1
version 1

Whole song

Interactive

204 views 1 this week
no commentswrite comment
1 2 3 4 5
please rate
add to favorites
launch autoscroll
font size
0
reset
guitar tuner
Tab Pro tools
  • play this tab
  • loop segment
  • change instrument
  • show fretboard
  • metronome
×
Best way to learn
"Waste Of Time"
Autoscroll
slow
fast
+/-
esc
set tempo
stop
Pretty cool and easy song. enjoy! XD
Intro:
G---------------------------------------------------------------------|
D---------------------------------------------------------------------|
A----------------00000------------------------------------------------|
E-(rest)-11111-----------11111----------------------------------------|

Verse:
G---------------------------------------------------------------------|
D---------------------------------------------------------------------|
A-0000000000000000------------------0000000000000000------------------|(X2)
E------------------1111111111111111------------------1111111111111111-|

Pre-chorus:
G--------------4-------------------4----------------------------------|
D-----------2~---4--------------2~---4--------------------------------|
A-5~---3~-------------5~---3~-----------------------------------------|
E---------------------------------------------------------------------|

Chorus:
G----------------------------------------------------------------44--4-|
D--------------0022-------------------------------------22222222---44--|
A-0000000000000-----------------2h33p2---------55-3--------------------|(X2)
E-------------------111111111111-------33333333-----5-3----------------|

Verse(X2)
Pre-chorus
Chorus(X2)

Guitar solo:
G---------------------------------------------------------------------|
D---------------------------------------------------------------------|
A-0000000000000000----------------------------------------------------|
E-----------------1111111111111111-3333333333333333-0000000000000000--|

G---------------------------------------------------------------------|
D-----------------------------------------------------------22222222--|
A-0000000000000000----------------------------------------------------|
E-----------------1111111111111111-3333333333333333-00000000----------|

Interlude:

G---------------------------------------------------------------------|
D---------------------------------------------------------------------|
A-00000-------00000---------------------------------------------------|
E-------11111-------11111---------------------------------------------|

Pre-chorus
Chorus(X6)

End on:
A-00000--

i think its 100% correctly. email: rapha_millencolin@hotmail.com
comments
We did not receive enough feedback on this tab! Please rate:
print report bad tab
1 2 3 4 5
I want to post or [tab]
guest
You may want to rate the tab now too:
select rating
Please do not post tabs as comments. Select "correction" instead!