Oops, an error
Loading. Please wait.

I Aint Superstitious tab

version 2
version 2

Whole song

770 views 3 this week
no commentswrite comment
1 2 3 4 5
1 last vote to show rating
add to favorites
×
Save as Personal and add changes to this tab that will be seen only by you. Learn more ›
×
You can save this tab as Personal to edit and correct it or add notes. All changes will be seen only by you. Learn more »
launch autoscroll
font size
0
reset
how to read this tab
guitar tuner
edit
Autoscroll
slow
fast
+/-
esc
set tempo
stop
Author
The Upholsterers - I Ain't Superstitious (Willie Dixon cover)

Alright guys, there was only one tab of this song, which was really, really shitty. So i 
decided to make my own.
I think it's the exact way Jack played it (don't mention licks after each phrase).


You can send me an e-mail --> onecanofcoke@ya.ru


Intro (lick may be wrong, sorry for that. Just lean on F minor pentatonic if you want.)

"Hey Jack!"

play this lick with rake!
                       F5
E||---------------------------| x3
B||---------------------------|
G||-/3--1--3--1--3b-----------|
D||--------------------3-3----|
A||--------------------3-3----|
E||--------------------1-1----|

E||---------------------------|
B||---------------------------|
G||-/3--1--3--1--3~-----------|
D||---------------------------|
A||---------------------------|
E||---------------------------|


Verse

Main phrase. Rocks really well.

"I ain't superstitous, but black cat just cross my trail, oh."
    A#5                                       F5
E||---------------------------|--------------------------------------|
B||---------------------------|--------------------------------------|
G||-3-333-333-333--33---------|--------------------------------------|
D||-3-333-333-333--33---------|---------------3-3--------------------|
A||-1-111-111-111--11---------|--------1------3-3------------1-------|
E||---------------------------|-1---4-----4b--1-1-----1---4-----4b~--|


"Oh, ain't superstitous, but black cat just cross my trail-o."
    A#5                                       F5
E||---------------------------|--------------------------------------|
B||---------------------------|--------------------------------------|
G||-3-333-333-333--33---------|--------------------------------------|
D||-3-333-333-333--33---------|---------------3-3--------------------|
A||-1-111-111-111--11---------|--------1------3-3------------1-------|
E||---------------------------|-1---4-----4b--1-1-----1---4-----4b~--|

2nd phrase

"Don't sweep me with no broom, I just might get put in jail"
    C5         A#5
E||---------------------------|
B||---------------------------|
G||-5555--55---3--------------|
D||-5555--55---3--------------|
A||-3333--33---1--------------|
E||---------------------------|

E||-----------------------------------------|
B||-----------------------------------------|
G||[-----------------]x3---/3--1--3--1--3~--|
D||---------------3-3-----------------------|
A||--------1------3-3-----------------------|
E||-1---4-----4b--1-1-----------------------|

Here are some licks i invented that could suit well into the song (between main phrase).

E||---------------------------|
B||---------------------------|
G||------------1--------------|
D||------1--3----3~---3-3-----|
A||-1/3---------------3-3-----|
E||-------------------1-1-----|

E||---------------------------|
B||-/4-4----------------------|
G||-/3-3---1--3--1------------|
D||-------------------3-3-----|
A||-------------------3-3-----|
E||-------------------1-1-----|

And so on. The rest can be figured out by yourself.
Thanks for attention.
Enjoy!
21st august, 2012
Suggest correction
Creating personal tab
Creating personal tab
You can edit any tab online and save it as your Personal.

You can edit, replace or remove any tab part or add personal notes – all changes will be seen only by you.

Personal tabs can be accessed anytime from any device, even offline.
Learn more »
Give kudos to tab author, rate the tab!
1 2 3 4 5
comments
print report bad tab
guest
You may want to rate the tab now too:
select rating
Wanna post a correction for this tab? Suggest correction