Oops, an error
Loading. Please wait.

All Over This Town Bass Tab

247 views 3 this week
no commentswrite comment
1 2 3 4 5
please rate
add to favorites
launch autoscroll
font size
0
reset
guitar tuner
Tab Pro tools
  • play this tab
  • loop segment
  • change instrument
  • show fretboard
  • metronome
Autoscroll
slow
fast
+/-
esc
set tempo
stop
Contributor
rko
Finishing the guitar tab as well :)

INTRO x2
G-------------------------------------------------------|
D-------------------------------------------------------|
A-------------------------------------------------------|
E-22222222-22222222-66666666-66666666-77777777-77777777-|

VERSE x2 0.14
G-------------------------------------------------------|
D-------------------------------------------------------|
A-------------------------------------------------------|
E-22222222-22222222-66666666-66666666-77777777-77777777-|

PRE CHORUS 0.34
G-----------------------------|
D-----------------------------|
A-4~---6~---------------------|
E-----------77777777\44444444-|

CHORUS x2 0.50
G-------------------------------------------------------------------------|
D-------------------------------------------------------------------------|
A-------------------66666666-66666666-44444444-44444444-22222222-44444444-|
E-22222222-22222222-------------------------------------------------------|

VERSE x4 1.07
G-------------------------------------------------------|
D-------------------------------------------------------|
A-------------------------------------------------------|
E-22222222-22222222-66666666-66666666-77777777-77777777-|

1.37
G-----------------11-------------------------------|
D--------------------9-----------------------------|
A-4~---6~--------------9---------------------------|
E-----------7~-7----------9-11-9-77777777-44444444-|

CHORUS x2 1.50
G-------------------------------------------------------------------------|
D-------------------------------------------------------------------------|
A-------------------66666666-66666666-44444444-44444444-22222222-44444444-|
E-22222222-22222222-------------------------------------------------------|

BRIDGE x2 2.17
G------------------|
D------------------|
A------------------|
E-6-6~---7~---9~---|

SOLO 2.30
G-------------------------------------------------------------------------------------------|
D----------------------------------------------------------------------------------66666666-|
A-------------------------------------44444444-66664444-22222222-22222222-------------------|
E-44444444-22222222-77777777-66666666-------------------------------------44444444----------|

CHORUS x2 2.47
G-------------------------------------------------------------------------|
D-------------------------------------------------------------------------|
A-------------------66666666-66666666-44444444-44444444-22222222-44444444-|
E-22222222-22222222-------------------------------------------------------|


OUTRO 3.14
G----
D----
A----
E-2~-
comments
We did not receive enough feedback on this tab! Please rate:
print report bad tab
1 2 3 4 5
I want to post or [tab]
guest
You may want to rate the tab now too:
select rating
Please do not post tabs as comments. Select "correction" instead!