Oops, an error
Loading. Please wait.

All Over This Town Tab

367 views 1 this week
no commentswrite comment
1 2 3 4 5
3 more votes to show rating
add to favorites
launch autoscroll
font size
0
reset
how to read this tab
guitar tuner
Autoscroll
slow
fast
+/-
esc
set tempo
stop
Help us to improve Ultimate-Guitar.com Take our survey!
×
Author
Intro/verse
Guitar 1
e|------------------------|
B|-7-(x16)6-(x16)-4-(x16)-|
G|------------------------|
D|------------------------|
A|------------------------|
E|------------------------|

Guitar 2
e|------------------------|
B|-99-77-99-77-99-7-9-777-|
G|------------------------|
D|------------------------|
A|------------------------|
E|------------------------|


Pre Chorus - after “It’s all over this town”
Guitar 1 and 2
e|-9-(x16)-|
B|---------|
G|---------|
D|---------|
A|---------|
E|---------|


Chorus (x2)
Guitar 1
e|-------------------------------------------------------77777777-99999999-|
B|-77777777-77777777-77777777-77777777-99999999-99999999-------------------|
G|-------------------------------------------------------------------------|
D|-------------------------------------------------------------------------|
A|-------------------------------------------------------------------------|
E|-------------------------------------------------------------------------|

Guitar 2
e|----------------------------------------------------------------------|
B|-11-------1212-1111---11-------1212-1111---9----------12------14------|
G|-11-(x12)-1111-1111---11-(x12)-1111-1111---11-(x16)---11-(x8)-11-(x8)-|
D|----------------------------------------------------------------------|
A|----------------------------------------------------------------------|
E|----------------------------------------------------------------------|

Repeat Verse

Pre Chorus 2 
Guitar 1 and 2
e|-9-(x48)-|
B|---------|
G|---------| 
D|---------|
A|---------|
E|---------|

Repeat Chorus

Bridge (x2)
Guitar 1 and 2
e|-----------------|
B|-----------------|
G|-----------------|
D|-8~-----9~---11--|
A|-8~-----9~---11--|
E|-6~-----7~---9---|



Solo
Guitar 1 and 2 (pans left to right etc if you listen close you can hear it)
e|-----------------------------------------------|
B|-----------------------------------------------|
G|-----------------------------------------------|
D|-6~---4~---9~---8~---11~---11-13---9~-----6~---|
A|-6~---4~---9~---8~---11~---11-13---9~-----6~---|
E|-4~---2~---7~---6~---9~----9--11---7~-----4~---|




Guitar 3 
e|11-99--1111-99--1111-99-----------1414141414-13----1414141414-13-----161616-14-1818181818181818|
B|--------------------------9h11p9----------------14---------------16----------------------------|
G|-----------------------------------------------------------------------------------------------|
D|-----------------------------------------------------------------------------------------------|
A|-----------------------------------------------------------------------------------------------|
E|-----------------------------------------------------------------------------------------------|


Repeat Chorus 


then end on
E|------|
B|------|
G|------|
D|-4~---|
A|-4~---|
E|-2~---|
Suggest correction
Give kudos to tab author, rate the tab!
1 2 3 4 5
comments
print report bad tab
guest
You may want to rate the tab now too:
select rating
Wanna post a correction for this tab? Suggest correction