Oops, an error
Loading. Please wait.

Black And White Tab

version 1
version 1

Whole song

580 views 1 this week
no commentswrite comment
1 2 3 4 5
please rate
add to favorites
launch autoscroll
font size
0
reset
how to read this tab
guitar tuner
Autoscroll
slow
fast
+/-
esc
set tempo
stop
Help us to improve Ultimate-Guitar.com Take our survey!
×
Author
INTRO/VERSE
Guitar 1 x9                            then
e------------------------------------]---------|
B-7---7---7----9----7---7----6---6---]---------|
G---6---6----6----6---6----6---6---6-]-6-(x16)-|
D------------------------------------]---------|
A------------------------------------]---------|
E------------------------------------]---------|

Guitar 2 x10
e---9---9------9-------9----|
B-----7---7-------7-7-----7-|
G---------------------------|
D---------------------------|
A---------------------------|
E---------------------------|

Guitar 3
        x8                  Pain pain..
e-------------------------]-9----9----9-11-9-----|
B-------------------------]---11---11---------11-|
G-------------------------]----------------------|
D-11----------------------]----------------------|
A-9—(x6)-88-9999-11111111-]----------------------|
E--------66-7777-9-9-9—9--]----------------------|

e-----------------------------------------|
B-----------------------------------------|
G-----------------------------------------|
D-11--------------------------------------|
A-9—(x6)-88-9999-11111111---9------11-----|
E--------66-7777-9-9-9—9----7-(x8)-9—(x8)-|


CHORUS
Guitar 1
e-66666666-7777-4444-|
B--------------------|
G--------------------|
D--------------------|
A--------------------|
E--------------------|

Guitar 2
e---9---9------9-------9----|
B-----7---7-------7-7-----7-|
G---------------------------|
D---------------------------|
A---------------------------|
E---------------------------|

Guitar 3
e-------------------------|
B-------------------------|
G-------------------------|
D-11----------------------|
A-9—(x6)-88-9999-11111111-|
E--------66-7777-9-9-9—9--|

BRIDGE
Guitar 1
e-6h7-6-7---6h7-6-4-|
B-------------------|
G-------------------|
D-------------------|
A-------------------|
E-------------------|

Guitar 2
e---9---9------9-------9----|
B-----7---7-------7-7-----7-|
G---------------------------|
D---------------------------|
A---------------------------|
E---------------------------|

Guitar 3
e----------------|
B----------------|
G----------------|
D----------------|
A-9-(x8)-11-(x8)-|
E-7------9-------|

INTRO/VERSE
CHORUS x4
INTRO/VERSE
CHORUS x4
BRIDGE x4
INTRO/VERSE
CHORUS x4
BRIDE x4
CHORUS x4
Suggest correction
What's this?
You can suggest a correction to this tab. Community and Mods will review your correction and vote to approve or reject it.
comments
We did not receive enough feedback on this tab! Please rate:
print report bad tab
1 2 3 4 5
guest
You may want to rate the tab now too:
select rating
Please do not post tabs as comments. Select "correction" instead!