Oops, an error
Loading. Please wait.

Combination Bass Tab

120 views 1 this week
no commentswrite comment
1 2 3 4 5
3 more votes to show rating
add to favorites
launch autoscroll
font size
0
reset
guitar tuner
Autoscroll
slow
fast
+/-
esc
set tempo
stop
Help us to improve Ultimate-Guitar.com Take our survey!
×
Author
Intro
G|-----------------------------------------|
D|----------2222222--------------0000-2224-|
A|------------------2h4-44444444-----------|
E|-0h2-2222--------------------------------|

Verse
G|-----------------------------------------|
D|----------2222222--------------0000-2224-|
A|------------------2h4-44444444-----------|
E|-22222222--------------------------------|

Chorus 1
G|-----------------------|
D|-------------0---0-2-4-|
A|-0~---2/4~-------------|
E|-----------------------|

Chorus 2
  X2                    then this x3        and end on
G|--------------------|--------------------|-------|
D|--------------------|--------2(x8)-0(x8)-|-0-2-4-|
A|-0(x16)-4(x8)-5(x8)-|-2(x16)-------------|-------|
E|--------------------|--------------------|-------|

Bridge (We’re dancing on top of……)
G|--------------------|
D|--------------------|
A|-0(x16)-4(x8)-5(x8)-|
E|--------------------|


Intro x2
Verse x4
Chorus 1
Verse x3
Chorus 2
Verse x 4
Bridge
Suggest correction
Give kudos to tab author, rate the tab!
1 2 3 4 5
comments
print report bad tab
guest
You may want to rate the tab now too:
select rating
Wanna post a correction for this tab? Suggest correction