Oops, an error
Loading. Please wait.

Kill Kill Kill Bass Tab

173 views 1 this week
no commentswrite comment
1 2 3 4 5
3 more votes to show rating
add to favorites
launch autoscroll
font size
0
reset
guitar tuner
Autoscroll
slow
fast
+/-
esc
set tempo
stop
Help us to improve Ultimate-Guitar.com Take our survey!
×
Author
Verse
G|-------------4-4-------------------------------------|
D|-44-444--6-6------44-444-----------------------------|
A|--------------------------6-6-4-4--2-2-2-2--2-2-2-44-|
E|-----------------------------------------------------|

You were happy/that you’re happy
G|-------------------------------------|
D|-------------------------------------|
A|----------6-6--4-4-----------6-6-6-6-|
E|-6-6-6-6------------4-4-4-4----------|

Pre Chorus
G|---------------------------------------------------------------------------|
D|------------------44444444-------------------------------------------------|
A|-2222222-44444444----------22222222---22222222-444444444/66666666/88888888-|
E|---------------------------------------------------------------------------|

Chorus
G|-------------------------------------------------------|
D|-------------------44444444----------------------------|
A|-22222222-44444444----------22222222-22222222-44444444-|
E|-------------------------------------------------------|
 

Bridge
       (x3)               then
G|---------------------|----------------|
D|---------------------|----------------|
A|-1--1-1-1---2--2-2-2-|-1--1-1-1--2--4-|
E|---------------------|----------------|

Outro
G|--------4~--------------------------|
D|-4~--6~-----4~-----------------4~---|
A|----------------6~-4~-2~---4~-------|
E|------------------------------------|
Suggest correction
Give kudos to tab author, rate the tab!
1 2 3 4 5
comments
print report bad tab
guest
You may want to rate the tab now too:
select rating
Wanna post a correction for this tab? Suggest correction