Oops, an error
Loading. Please wait.

Leave Me Alone Bass Tab

74 views 1 this week
no commentswrite comment
1 2 3 4 5
please rate
add to favorites
launch autoscroll
font size
0
reset
guitar tuner
Autoscroll
slow
fast
+/-
esc
set tempo
stop
Help us to improve Ultimate-Guitar.com Take our survey!
×
Author
Verse 1
G|------------------------------------------------|
D|------------------------------------------------|
A|-5~---------5~----------------------------------|
E|----5~-3~------5~-3~---5\2~---3~---5~---3~---5~-|

Chorus
G|------------------------------------------------------------------|
D|------------------------------------------------------------------|
A|-5-5-------------5-5----------------------------------------------|
E|-----5-5-3-3-3-3-----5-5-3-3-3-5--7-7-5-5-4-4-4-4-0-0-0-2-3-3-5-5-|

Verse 2
G|------------------------------------------------------------------------|
D|------------------------------------------------------------------------|
A|-5-5---------------5-5--------------------------------------------------|
E|-----5-5-3-3-3-3-------5-5-3-3-3-3-5\2-2-2-2--3-3-5-5--3-3-3-3--5-5-5-5-|

Bridge/Solo
G|-------------------------------------------------------|
D|-------------------------------------------------------|
A|-5-5-5-5-----------------------------------------------|
E|---------3-3-3-3-2-2-2-2-5-5-5-5---0-0-0-0-5-5-3-3-3-3-|

Last Chorus
G|---------------------------------------|
D|---------------------------------------|
A|-5-5-------------5---------------------|
E|-----5-5-3-3-3-3---5---4----0---2-3--5-|

Outro
G|---------------------|
D|---------------------|
A|-5~---5~---5~---5~---|
E|---------------------|

Suggest correction
Give kudos to tab author, rate the tab!
1 2 3 4 5
comments
print report bad tab
guest
You may want to rate the tab now too:
select rating
Wanna post a correction for this tab? Suggest correction