Oops, an error
Loading. Please wait.

Never Come Back Bass Tab

84 views 1 this week
no commentswrite comment
1 2 3 4 5
3 more votes to show rating
add to favorites
launch autoscroll
font size
0
reset
guitar tuner
Autoscroll
slow
fast
+/-
esc
set tempo
stop
Help us to improve Ultimate-Guitar.com Take our survey!
×
Author
Verse 1
         x3                   x1                   x3
G|-------------------|-------------------|-------------------|
D|-5~---2~-----------|--5~---2-----------|------5~-----------|
A|-----------5~---33-|-----------5~---33-|-3~--------7~---55-|
E|-------------------|-------------------|-------------------|


Chorus
I need your       I do despise you
      x2     
G|-------------|-----------|
D|-------------|-----------|
A|----------55-|----2-3-5~-|
E|-5-55--3-----|-5~--------|



Verse 2
         x3
G|---------------------|-------------|
D|-5~---22-------------|-5~---22-----|
A|-----------5~---33---|-----------5-|
E|---------------------|-------------|


Chorus 2
           I need your                     I do despise you           
G|----------------------------|-----------------------------5-4-----|
D|----------------------------|---------------------------------7-5-|
A|-------------------55555555-|---------22-33333\2/3/5-3333---------|
E|-55555555-33333333----------|-5555555-----------------------------|


Solo/Verse 3
G|---------------------|------|
D|-5555-2222-----------|-5~---|
A|-----------5555-3333-|------|
E|---------------------|------|
Suggest correction
Give kudos to tab author, rate the tab!
1 2 3 4 5
comments
print report bad tab
guest
You may want to rate the tab now too:
select rating
Wanna post a correction for this tab? Suggest correction