Oops, an error
Loading. Please wait.

Once For Me Bass Tab

48 views 1 this week
no commentswrite comment
1 2 3 4 5
3 more votes to show rating
add to favorites
launch autoscroll
font size
0
reset
guitar tuner
Autoscroll
slow
fast
+/-
esc
set tempo
stop
Help us to improve Ultimate-Guitar.com Take our survey!
×
Author
Intro/Verse
G|----------------------------------|
D|--------3(x16)-2(x16)-3(x8)-5(x8)-|
A|-3(x16)---------------------------|
E|----------------------------------|

Chorus
G|----------------------|
D|----------------------|
A|-3(x16)-2(x7)---------|
E|--------------0-1(x8)-|

Bridge 1.39 - 1.53 (x2)
G|-------------------------|
D|-------------------------|
A|-------------------------|
E|-3(x8)-5(x8)-0(x8)-1(x8)-|

Before Verse 3
G|----------------------|
D|----------------------|
A|-3(x16)-2(x7)---------|
E|--------------0-1(x8)-|

Verse 3
G|----------------------------------------------------------------------|
D|--------3(x16)-2(x16)-3(x8)-5(x8)-----------3(x16)--------------------|
A|-3(x16)-----------------------------3(x16)----------------------------|
E|---------------------------------------------------0(x16)-1(x8)-3(x8)-|
 

G|--------------------|
D|--------------------|
A|--------------------|
E|-1(x16)-3(x8)-1(x8)-|

Last Chorus (x2)          end on
G|----------------------|------|
D|----------------------|------|
A|-3(x16)-2(x7)---------|-3~---|
E|--------------0-1(x8)-|------|

Suggest correction
Give kudos to tab author, rate the tab!
1 2 3 4 5
comments
print report bad tab
guest
You may want to rate the tab now too:
select rating
Wanna post a correction for this tab? Suggest correction